>
 >
Avoiding The Angel

Avoiding The Angel Guitar Tabs

Navarro Dave - Avoiding The Angel chords, tabs, tablatures, lyrics

Guitar lessons | Add/correct | Request | Top 50 tabs Artists:  A B C D E F G H I J K L M N O P Q R S T U V W X Y Z 0-9

Avoiding The Angel Guitar Tabs – Navarro Dave

CD, Sheet music, Poster

Do you like Avoiding The Angel? Share with your friends now
Tabs
Tuning: Std

There're lots of guitars and effets at the same time, 
I tried to tab for one guitar only. and in std tune.
Far from being perfect, well, just one guy may give us the full right tab :-)

Here the riffs, listen the track for timing and path.

//**********
Intro X6, + echo + tremolo , let the strings ring
e--------------------0h1p0---------------0-------------------------------------
B-3---3---------3----------3-------3---------1---1-----1---1--0---0--------3---
G----------------------------------------------4---------4----------4--3-----3-
D-0-0---0---0-0---0--0-------0-------0-----------------------------------------
A------------------------------1-1-------3-3-------3-3--------2-2------1-1-----
E------------------------------------------------------------------------------

//**********
RIFF A X3 (01:02)
e---        -0---3-
B--- etc... -0---1-
G-2- to     -2---0-
D-2-        -2---3-
A-0-        -0-----     
E---        -------

//**********
RIFF 1 X4; (01:18) dist
e---------------------------
B---------------------------
G-7-----9-/-10-----9---4--3-
D-x-----x-s-x------x---x--x-
A-5-----7-/-8------7---2--1-
E---------------------------

//**********
RIFF A X3 (01:58)

//**********
BRIDGE, (02:14) don't really know what he's doing, sound like this with fast alt. picking and art. harmonic
e--4--3--
B--3--3-- etc...
G--4--4--
D--0--5--
A-
E-

//**********
again several guitars and ... (02:52)
e-
B-
G-
D-8-s-9-s-10-s-12---14-s-15-s-14-s12
A-
E-

//**********
RIFF 2 X2: (03:12) during the 'solo' fell free to tab dave's solo
e-------------3-
B-------------3-
G-2--2--4--0--0-
D-2--3--5--2--2-
A-0--3--5--2--2-
E----1--3--0----

what's might be the solo part, at least something like that. use of Wah. listen for timing
\ : slide
b : bend
r : release ( bend )
v : vibrato

e----------------------------------------------------------------------------------14-15
B-14-15-17-15-14---------------------------------10--(+wah)---14-15-14-17-14------------
G----------------16-\-12b-14----------12b(r)(v)--12b-------------------------16-14------
D--------------------------12-13-14-
A-
E-

e-
B-
G-/-8-7---2----------11-12
D------10-2-(+wah)---12-11
A---------0-----------9--9
E------------------------0


//**********
RIFF 1 X2 (03:33)

//**********
RIFF 3 X2  (03:52)
E----------------
B----------3--1--
G-7--7--5--4--3--
D-7--8--5--4--3--
A-5--8--3--2--1--
E-5--6--3--------

//**********
END (04:10)
E--------
B-0----(0)
G-2--\--5
D-2--\--5A-0----(0)
E--------





Comments


Popular Navarro Dave tabs & chords
Slow Motion Sickness Chords
National Anthem Tabs
Rexall Tabs
Slow Motion Sickness Tabs
Star Spangled Banner Tabs
The Bed Tabs


Song lyrics



↑ Back to top | Tablatures and chords are parodies/interpretations of the original songs. You may use it for private study, scholarship, research or language learning purposes only
© 2014 AZChords.com Contact us | Privacy policy | DMCA | Add/correct tabs | Request tabs | Top 50 tabs