» » »

Cyber God Tabs (ver.1)

Artists:  A B C D E F G H I J K L M N O P Q R S T U V W X Y Z # 

Cyber God Tabs (ver.1)

Nausea
Rating:
5/5 (2 votes)

Hard to play? Try these video lessons and learn fast.
                -------------------------------------------------------------------------------
-------------------------------------------------------------------------------

Tuning:Down 1-step

Intro x4
d|-----------------------------------------------------------------------|
A|-----------------------------------------------------------------------|
F|------------5----------------------------------------------------------|
C|-------4----3----------------------------------------------------------|
G|---2---2---------------------------------------------------------------|
D|---0-------------------------------------------------------------------|

Verse
d|-----------------------------------------------------------------------|
A|-----------------------------------------------------------------------|
F|-----------------------------------------------------------------------|
C|-----------------------------------------------------------------------|
G|--2--2--2--2--5--7--8--7-x-x-x-x---------------------------------------|
D|--0--0--0--0--3--5--6--5-x-x-x-x---------------------------------------|

Pre-Chorus
d|-----------------------------------------------------------------------|
A|-----------------------------------------------------------------------|
F|--------2h5p2----------------9b----------------------------------------|
C|-----------------------------------------------------------------------|
G|--2-----------7/8\7--7-5-----------------------------------------------|
D|--0-----------5/6\5--5-3-----------------------------------------------|

Then after you play that riff alot....
d|-----------------------------------------------------------------------|
A|-----------------------------------------------------------------------|
F|-----------------------------------------------------------------------|
C|---0h2h4---0h4h6---0h6h8-----------------------------------------------|
G|----------------------------2------------------------------------------|
D|-----------------------------------------------------------------------|


Chorus
d|-----------------------------------------------------------------------|
A|-----------------------------------------------------------------------|
F|-----------5-----------------------------------------------------------|
C|-------4---3-----------------------------------------------------------|
G|--2----2---------------------------------------------------------------|
D|--0--------------------------------------------------------------------|

Thats it, this song is really awsome.
            
Hard to play? Try these video lessons and learn fast. | Correct




comments powered by Disqus
↑ Back to top | Tablatures and chords are parodies/interpretations of the original songs. You may use it for private study, scholarship, research or language learning purposes only