>
 >
Say Bye Bye

Say Bye Bye Guitar Tabs

Natty - Say Bye Bye chords, tabs, tablatures, lyrics

Guitar lessons | Add/correct | Request | Top 50 tabs Artists:  A B C D E F G H I J K L M N O P Q R S T U V W X Y Z 0-9

Say Bye Bye Guitar Tabs – Natty

CD, Sheet music, Poster

Do you like Say Bye Bye? Share with your friends now
Tabs
This Is My First Tab And I Know It's Not A 100% Correct But Its Very Very Close.Enjoy. 

----------------------------------------------------------------------------
----------------------------------------------------------------------------

Tuning: Standard, Capo 2. Everything Related To Capo. 


Intro (x2) (x4 For Album Version)
e|-------------------------------------------------------------------------|
B|------3-----3-----3-----3--------0-----0-----0-----0---------------------|
G|----2-----2-----2-----2--------2-----2-----2-----2-----------------------|
D|--0-----0-----0-----0--------0-----0-----0-----0-------------------------|
A|-------------------------------------------------------------------------|
E|-------------------------------------------------------------------------|

1st Verse (x4)
e|-------------------------------------------------------------------------|
B|------3-----3-----3-----3--------0-----0-----0-----0---------------------|
G|----2-----2-----2-----2--------2-----2-----2-----2-----------------------|
D|--0-----0-----0-----0--------0-----0-----0-----0-------------------------|
A|-------------------------------------------------------------------------|
E|-------------------------------------------------------------------------|

Chorus                     (x3) Then End It With  
e|--------------------------|----------------------------------------------|
B|------0-----0-----0-----0-|---------0-----0-----0-----0------------------|
G|----2-----2-----0-----0---|-------0-----0-----0-----0--------------------|
D|--2-----2-----0-----0-----|-----0-----0-----0-----0----------------------|
A|--------------------------|----------------------------------------------|
E|--------------------------|----------------------------------------------|

2nd Verse (x6)
e|-------------------------------------------------------------------------|
B|------3-----3-----3-----3--------0-----0-----0-----0---------------------|
G|----2-----2-----2-----2--------2-----2-----2-----2-----------------------|
D|--0-----0-----0-----0--------0-----0-----0-----0-------------------------|
A|-------------------------------------------------------------------------|
E|-------------------------------------------------------------------------|


Then Back To Chorus.... 

Bridge (x6) ( The Open On The High e String Is Put In After 4 Times)  
e|-(0)---------------------------------------------------------------------|
A|--------1------------0-------------3------------3------------------------|
G|------0---0--------0----0--------0---0--------0---0----------------------|
D|----2-------2----0--------0----4-------4----4-------4--------------------|
A|--3------------2-------------5------------5------------------------------|
E|-------------------------------------------------------------------------|

Then Choruse Again Twice. 

End On Open 6th String. 






| /  slide up
| \  slide down
| h  hammer-on
| p  pull-off
| ~  vibrato
| +  harmonic
| x  Mute note
===============================================================================





Comments


Popular Natty tabs & chords
Bedroom Eyes Chords
Bedroom Eyes 1 Chords
If I Chords
July Chords
She Loves Me Chords
Cold Town Tabs
Bedroom Eyes Ukulele
If I Ukulele
July Ukulele
She Loves Me Ukulele


Song lyrics



↑ Back to top | Tablatures and chords are parodies/interpretations of the original songs. You may use it for private study, scholarship, research or language learning purposes only
© 2014 AZChords.com Contact us | Privacy policy | DMCA | Add/correct tabs | Request tabs | Top 50 tabs