>
 >
Nature Boy

Nature Boy Guitar Tabs

Nat King Cole - Nature Boy chords, tabs, tablatures, lyrics

Guitar lessons | Add/correct | Request | Top 50 tabs Artists:  A B C D E F G H I J K L M N O P Q R S T U V W X Y Z 0-9

Nature Boy Guitar Tabs – Nat King Cole

CD, Sheet music, Poster

Do you like Nature Boy? Share with your friends now
ChordsTabsUkulele

Tuning: EADGBE  Time Signature: 4/4. 4 bar intro.

 |       |       |       |        |       |       |       |        
|0---2---3---0---5-------7-------|5-------------------------------|
|0---------------5---------------|5-------------------------------|
|0---------------5---------------|5-------------------------------|
|2---------------5---------------|5-------------------------------|
|2-------------------------------|--------------------------------|
|--------------------------------|--------------------------------|

 |       |       |       |        |       |       |       |        
|0---2---3---0---2-------3-------|2-------------------------------|
|0---------------2---------------|0-------------------------------|
|0---------------3---------------|2-------------------------------|
|2---------------2---------------|1-------------------------------|
|2-------------------------------|2-------------------------------|
|--------------------------------|--------------------------------|

 |       |       |       |        |       |       |       |        
|--------7---------------3-------|----0-------0-------0-------0---|
|0-------8---------------4-------|----0-------0-------0-------0---|
|--------8---------------4-------|----0-------0-------0-------0---|
|--------7---------------5-------|--------------------------------|
|--------------------------------|----------------2-------2-------|
|--------------------------------|0-------------------------------|

 |       |       |       |        |       |       |       |        
|----0-----------2---3---5---8---|7-----------3-------0-------0---|
|----1-------0---2-------4---7---|8-----------4-------0-------0---|
|----0-----------2-------5---8---|8-----------4-------0-------0---|
|----2-----------1-------4---7---|--------------------------------|
|0---------------2---------------|--------------------------------|
|--------------------------------|----------------0---------------|

 |       |       |       |        |       |       |       |        
|----0-------0-------0-----------|2---3---5---8---------------0---|
|----0-------0-------1-------0---|0-------4---7---0---------------|
|----0-------0-------0-----------|2-------5---8---0---------------|
|--------------------2-----------|1-------4---7---2---------------|
|2-------2-------0---------------|2---------------2---------------|
|--------------------------------|--------------------------------|

 |       |       |       |        |       |       |       |        
|--------------------------------|--------------------------------|
|------------4---------------3---|------------2---------------0---|
|--------4---------------4-------|--------2---------------0-------|
|----5---------------5-----------|----2---------------2-----------|
|6---------------5---------------|4---------------3---------------|
|--------------------------------|--------------------------------|

 |       |       |       |        |       |       |       |        
|7---5---------------2-------2---|----3-------3---2---------------|
|5-------5-----------0-------0---|----1-------1---0-------0-------|
|5-------------------2-------2---|----3-------3---2---------------|
|5-------------------1-------1---|----2-------2---1---------------|
|----------------2---------------|3-------3-------2---------------|
|--------------------------------|--------------------------------|

 |       |       |       |        |       |       |       |        
|7-------5-----------2-------2---|----3-------3---2---------------|
|5-------5-----------1-------1---|----1-------1---1-------0-------|
|5-------5-----------2-------2---|----2-------2---2---------------|
|5-------4-----------2-------2---|2-------2-------2---------------|
|----------------0---------------|----------------0---------------|
|--------------------------------|--------------------------------|

 |       |       |       |        |       |       |       |        
|5-------3-----------0-------0---|----0-------0-------------------|
|4-------------------0-------0---|----0-------0-----------0-------|
|4-------------------0-------0---|----0-------0-------------------|
|4-------------------------------|--------------------------------|
|--------------------------------|2-------2-----------------------|
|----------------0---------------|----------------0---------------|

 |       |       |       |        |       |       |       |        
|3-------2-----------2-------2---|----2-------2-------------------|
|--------------------2-------2---|----2-------2-------------------|
|--------------------3-------3---|----3-------3-------------------|
|--------------------2-------2---|----2-------2-------------------|
|--------------------4-------4---|4-------4-----------------------|
|----------------2---------------|----------------2---------------|

 |       |       |       |        |       |       |       |        
|3-------------------0-------0---|--------0---------------3-------|
|2-------------------1-------1---|--------1---------------3-------|
|3-------------------2-------2---|--------2---------------2-------|
|2-------------------2-------2---|--------2---------------1-------|
|--------------------------------|----------------2---------------|
|----------------2---------------|2-------------------------------|

 |       |       |       |        |       |       |       |        
|----------------7-------3-------|----0-------0-------0-------0---|
|--------0-------8-------4-------|----0-------0-------0-------0---|
|----------------8-------4-------|----0-------0-------0-------0---|
|----------------7-------5-------|--------------------------------|
|--------------------------------|----------------2-------2-------|
|--------------------------------|0-------------------------------|

 |       |       |       |        |       |       |       |        
|----0-----------2---3---5---8---|7-----------3-------0-------0---|
|----1-------0---2-------4---7---|8-----------4-------0-------0---|
|----0-----------2-------5---8---|8-----------4-------0-------0---|
|----2-----------1-------4---7---|--------------------------------|
|0---------------2---------------|--------------------------------|
|--------------------------------|----------------0---------------|

 |       |       |       |        |       |       |       |        
|----0-------0-------0-----------|2---3---5---8---------------0---|
|----0-------0-------1-------0---|0-------4---7---0---------------|
|----0-------0-------0-----------|2-------5---8---0---------------|
|--------------------2-----------|1-------4---7---2---------------|
|2-------2-------0---------------|2---------------2---------------|
|--------------------------------|--------------------------------|

 |       |       |       |        |       |       |       |        
|--------------------------------|--------------------------------|
|------------4---------------3---|------------2---------------0---|
|--------4---------------4-------|--------2---------------0-------|
|----5---------------5-----------|----2---------------2-----------|
|6---------------5---------------|4---------------3---------------|
|--------------------------------|--------------------------------|

 |       |       |       |        |       |       |       |        
|7---5---------------2-------2---|----3-------3---2---------------|
|5-------5-----------0-------0---|----1-------1---0-------0-------|
|5-------------------2-------2---|----3-------3---2---------------|
|5-------------------1-------1---|----2-------2---1---------------|
|----------------2---------------|3-------3-------2---------------|
|--------------------------------|--------------------------------|

 |       |       |       |        |       |       |       |        
|7-------5-----------2-------2---|----3-------3---2---------------|
|5-------5-----------1-------1---|----1-------1---1-------0-------|
|5-------5-----------2-------2---|----3-------3---2---------------|
|5-------4-----------2-------2---|2-------2-------2---------------|
|----------------0---------------|----------------2---------------|
|--------------------------------|--------------------------------|

 |       |       |       |        |       |       |       |        
|5-------3-----------0-------0---|----0-------0-------------------|
|4-------------------0-------0---|----0-------0-----------0-------|
|4-------------------0-------0---|----0-------0-------------------|
|4-------------------------------|--------------------------------|
|--------------------------------|2-------2-----------------------|
|----------------0---------------|----------------0---------------|

 |       |       |       |        |       |       |       |        
|3-------2-----------------------|--------5---3---2---------------|
|--------------------------------|2---------------0---------------|
|----------------------------3---|----------------2---------------|
|------------------------2-------|----------------1---------------|
|--------------------4-----------|----------------2---------------|
|----------------2---------------|--------------------------------|

 |       |       |       |        |       |       |       |        
|3-------2-----------------------|--------------------------------|
|--------------------------------|--------------------------------|
|--------------------------------|------------------------2---4---|
|--------------------------------|--------1---2---4---5-----------|
|----------------------------0---|2---3---------------------------|
|----------------0---2---3-------|--------------------------------|

 |       |       |       |        |       |       |       |        
|--------------------------------|0b------------------------------|
|----4---5-------0---------------|2b------------------------------|
|5---------------2---------------|0b------------------------------|
|----------------1---------------|2b------------------------------|
|----------------2---------------|2b------------------------------|
|------------------------0-------|0b------------------------------|





Comments


Popular Nat King Cole tabs & chords
Answer Me My Love Chords
Orange Colored Sky Chords
Thats All Chords
The Christmas Song 5 Chords
You Call It Madness (But I Call It Love) Chords
Avalon Tabs
Unforgettable Tabs
Autumn Leaves Ukulele
I Wish You Love Ukulele
Orange Colored Sky Ukulele


Song lyrics



↑ Back to top | Tablatures and chords are parodies/interpretations of the original songs. You may use it for private study, scholarship, research or language learning purposes only
© 2014 AZChords.com Contact us | Privacy policy | DMCA | Add/correct tabs | Request tabs | Top 50 tabs