>
 >
Paper And Ink

Paper And Ink Guitar Tabs

National Product - Paper And Ink chords, tabs, tablatures, lyrics

Guitar lessons | Add/correct | Request | Top 50 tabs Artists:  A B C D E F G H I J K L M N O P Q R S T U V W X Y Z 0-9

Paper And Ink Guitar Tabs – National Product

CD, Sheet music, Poster

Do you like Paper And Ink? Share with your friends now
Tabs
-------------------------------------------------------------------------------
-------------------------------------------------------------------------------

Tuning: Drop C

 This isnt 100% correct in all places, but its close

|------------------------------------------|
|------------------------------11-10-------|
|-----------12-----------------------10----|
|------12-----------------10---------------|
|-10-----------------13--------------------|
|------------------------------------------|
  .                  .

|------------------------------------------|
|------------------------------11-10-------|
|-------------12---------------------10----|
|--------12---------------10---------------|
|-10-----------------13--------------------|
|------------------------------------------|
  .                  .

 Guitar 1
|------------------------------------------|
|------------------------------11-10-------|
|-------------12---------------------10----|
|--------12---------------10---------------| x2
|-10-----------------13--------------------|
|------------------------------------------|
  .                  .

 Guitar 2
|------------------------------------------|
|------------------------------------------|
|------------------------------------------|
|------------------------------------------|
|--5-----5----------------5-----5----------|
|--5-----5----------------5-----5----------|


 Guitar 1
|------------------------------------------|
|------------------------------11-10-------|
|-------------12---------------------10----|
|--------12---------------10---------------| x2
|-10-----------------13--------------------|
|------------------------------------------|
  .                  .

 Guitar 2
|------------------------------------------|
|------------------------------------------|
|------------------------------------------|
|------------------------------------------|
|--5-----5----------------5-----5----------|
|--5-----5----------------5-----5----------|


 Guitar 1
|------------------------------------------|
|------------------------------11-10-------|
|-------------12---------------------10----|
|--------12---------------10---------------| x2
|-10-----------------13--------------------|
|------------------------------------------|
  .                  .

 Guitar 2
|------------------------------------------|
|------------------------------------------|
|------------------------------------------|
|------------------------------------------|
|--8-----8----------------8-----8----------|
|--8-----8----------------8-----8----------|


 Guitar 1
|------------------------------------------|
|------------------------------11-10-------|
|-------------12---------------------10----|
|--------12---------------10---------------| x2
|-10-----------------13--------------------|
|------------------------------------------|
  .                  .

 Guitar 2
|------------------------------------------|
|------------------------------------------|
|------------------------------------------|
|------------------------------------------|
|--5-----5----------------5-----5----------|
|--5-----5----------------5-----5----------|


 Guitar 1
|------------------------------------------|
|------------------------------11-10-------|
|-------------12---------------------10----|
|--------12---------------10---------------| x2
|-10-----------------13--------------------|
|------------------------------------------|
  .                  .

 Guitar 2
|------------------------------------------|
|------------------------------------------|
|------------------------------------------|
|------------------------------------------|
|--8-----8----------------8-----8----------|
|--8-----8----------------8-----8----------|


 Guitar 1 & 2
|---------------------------|
|---------------------------|
|---------------------------|
|---------------------------|
|-5----(5)----5-------------|
|-5----(5)----5-------------|


 Guitar 1
|---------------------------------------------------------------------|
|-11------11------13------15-------13--------13------15------16-------|
|-----12------12------12--------12-------12------12------12------12---|
|---------------------------------------------------------------------|
|---------------------------------------------------------------------|
|---------------------------------------------------------------------|

|---------------------------------------------------------------------|
|-15------15------16------18-------18--------18------16------15--11---|
|-----15------15------15--------15-------15------15------15-----------|
|---------------------------------------------------------------------|
|---------------------------------------------------------------------|
|---------------------------------------------------------------------|


 Guitar 2
|-------------------------------------------------------------------|
|-------------------------------------------------------------------|
|-------------------------------------------------------------------|
|-8-8-8-8-8-8-8-8-5-5-5-5-5-5-5-5-----------------------------------|
|-6-6-6-6-6-6-6-6-3-3-3-3-3-3-3-3-5-5-5-5-5-5-5-5-8-8-8-8-8-8-8-8---|
|---------------------------------5-5-5-5-5-5-5-5-8-8-8-8-8-8-8-8---|


 Guitar 1
|----------------------------------------------------------------------|
|(11)-----11------13------15------13------13------15------16-------15--|
|-----12------12------12------12------12------12------12--------15-----|
|----------------------------------------------------------------------|
|----------------------------------------------------------------------|
|----------------------------------------------------------------------|

|---------------------------------------------------------------|
|-----15------16------18------18------18------16------15--------|
|-15------15------15------15------15------15------15------15----|
|---------------------------------------------------------------|
|---------------------------------------------------------------|
|---------------------------------------------------------------|


 Guitar 2
|-------------------------------------------------------------------|
|-------------------------------------------------------------------|
|-------------------------------------------------------------------|
|-8-8-8-8-8-8-8-8-5-5-5-5-5-5-5-5-----------------------------------|
|-6-6-6-6-6-6-6-6-3-3-3-3-3-3-3-3-5-5-5-5-5-5-5-5-8-8-8-8-8-8-8-8---|
|---------------------------------5-5-5-5-5-5-5-5-8-8-8-8-8-8-8-8---|

I cant figure out what guitar 1 is playing here so i just grouped them together

 Guitar 1 & 2
|------------------------|
|------------------------|
|------------------------|
|------------------------|
|--3----(3)----15\\------|
|--3----(3)----15\\------|

|--------------------------------------------------------------------|
|--------------------------------------------------------------------|
|--------------------------------------------------------------------|
|---------------------------------5-5-5-5-5-5-7-7-8-8-8-8-8-8-8-8----|
|-5-5-5-5-5-5-7-7-8-8-8-8-8-8-8-8-3-3-3-3-3-3-5-5-6-6-6-6-6-6-6-6----|
|-5-5-5-5-5-5-7-7-8-8-8-8-8-8-8-8------------------------------------|

|--------------------------------------------------------------------|
|--------------------------------------------------------------------|
|--------------------------------------------------------------------|
|---------------------------------8-8-8-8-8-8-7-7-5-5-5-5------------|
|-5-5-5-5-5-5-7-7-8-8-8-8-8-8-8-8-6-6-6-6-6-6-5-5-3-3-3-3-3-3-3-3----|
|-5-5-5-5-5-5-7-7-8-8-8-8-8-8-8-8-------------------------3-3-3-3----|

|------------------------------------------|
|------------------------------------------|
|------------------------------------------|
|------------------------------------------|
|-1--------(1)----------3----------(3)-----|
|-1--------(1)----------3----------(3)-----|


 Guitar 1
|------------------------------------------|
|------------------------------11-10-------|
|-------------12---------------------10----|
|--------12---------------10---------------| x2
|-10-----------------13--------------------|
|------------------------------------------|
  .                  .

 Guitar 2
|------------------------------------------|
|------------------------------------------|
|------------------------------------------|
|------------------------------------------|
|-5-------5--5-----5----5----5-5-5---------|
|-5-------5--5-----5----5----5-5-5---------|
  .       .        .    .    . . .

|------------------------------------------|
|------------------------------------------|
|------------------------------------------|
|------------------------------------------|
|-5-------5--5-----5----5----7-7-7---------|
|-5-------5--5-----5----5----7-7-7---------|
  .       .        .    .    . . .

 Guitar 1
|------------------------------------------|
|------------------------------11-10-------|
|-------------12---------------------10----|
|--------12---------------10---------------| x2
|-10-----------------13--------------------|
|------------------------------------------|
  .                  .

 Guitar 2
|------------------------------------------|
|------------------------------------------|
|------------------------------------------|
|------------------------------------------|
|-8-------8--8-----8----8----8-8-8---------|
|-8-------8--8-----8----8----8-8-8---------|
  .       .        .    .    . . .

|------------------------------------------|
|------------------------------------------|
|------------------------------------------|
|------------------------------------------|
|-8-------8--8-----8----8----8-8-8---------|
|-8-------8--8-----8----8----8-8-8---------|
  .       .        .    .    . . .

 Guitar 1
|------------------------------------------|
|------------------------------11-10-------|
|-------------12---------------------10----|
|--------12---------------10---------------| x2
|-10-----------------13--------------------|
|------------------------------------------|
  .                  .

 Guitar 2
|------------------------------------------|
|------------------------------------------|
|------------------------------------------|
|------------------------------------------|
|-5-------5--5-----5----5----5-5-5---------|
|-5-------5--5-----5----5----5-5-5---------|
  .       .        .    .    . . .

|------------------------------------------|
|------------------------------------------|
|------------------------------------------|
|------------------------------------------|
|-5-------5--5-----5----5----7-7-7---------|
|-5-------5--5-----5----5----7-7-7---------|
  .       .        .    .    . . .

 Guitar 1
|------------------------------------------|
|------------------------------11-10-------|
|-------------12---------------------10----|
|--------12---------------10---------------| x2
|-10-----------------13--------------------|
|------------------------------------------|
  .                  .

 Guitar 2
|------------------------------------------|
|------------------------------------------|
|------------------------------------------|
|------------------------------------------|
|-8-------8--8-----8----8----8-8-8---------|
|-8-------8--8-----8----8----8-8-8---------|
  .       .        .    .    . . .

|------------------------------------------|
|------------------------------------------|
|------------------------------------------|
|------------------------------------------|
|-8-------8--8-----8----8----8-8-8---------|
|-8-------8--8-----8----8----8-8-8---------|
  .       .        .    .    . . .

 Guitar 1
|---------------------------------------------------------------------|
|-11------11------13------15-------13--------13------15------16-------|
|-----12------12------12--------12-------12------12------12------12---|
|---------------------------------------------------------------------|
|---------------------------------------------------------------------|
|---------------------------------------------------------------------|

|---------------------------------------------------------------------|
|-15------15------16------18-------18--------18------16------15--11---|
|-----15------15------15--------15-------15------15------15-----------|
|---------------------------------------------------------------------|
|---------------------------------------------------------------------|
|---------------------------------------------------------------------|


 Guitar 2
|-------------------------------------------------------------------|
|-------------------------------------------------------------------|
|-------------------------------------------------------------------|
|-8-8-8-8-8-8-8-8-5-5-5-5-5-5-5-5-----------------------------------|
|-6-6-6-6-6-6-6-6-3-3-3-3-3-3-3-3-5-5-5-5-5-5-5-5-8-8-8-8-8-8-8-8---|
|---------------------------------5-5-5-5-5-5-5-5-8-8-8-8-8-8-8-8---|


 Guitar 1
|----------------------------------------------------------------------|
|(11)-----11------13------15------13------13------15------16-------15--|
|-----12------12------12------12------12------12------12--------15-----|
|----------------------------------------------------------------------|
|----------------------------------------------------------------------|
|----------------------------------------------------------------------|

|---------------------------------------------------------------|
|-----15------16------18------18------18------16------15--------|
|-15------15------15------15------15------15------15------15----|
|---------------------------------------------------------------|
|---------------------------------------------------------------|
|---------------------------------------------------------------|


 Guitar 2
|-------------------------------------------------------------------|
|-------------------------------------------------------------------|
|-------------------------------------------------------------------|
|-8-8-8-8-8-8-8-8-5-5-5-5-5-5-5-5-----------------------------------|
|-6-6-6-6-6-6-6-6-3-3-3-3-3-3-3-3-5-5-5-5-5-5-5-5-8-8-8-8-8-8-8-8---|
|---------------------------------5-5-5-5-5-5-5-5-8-8-8-8-8-8-8-8---|


 Guitar 1 & 2
|------------------------|
|------------------------|
|------------------------|
|------------------------|
|--3----(3)----15\\------|
|--3----(3)----15\\------|

|--------------------------------------------------------------------|
|--------------------------------------------------------------------|
|--------------------------------------------------------------------|
|---------------------------------5-5-5-5-5-5-7-7-8-8-8-8-8-8-8-8----|
|-5-5-5-5-5-5-7-7-8-8-8-8-8-8-8-8-3-3-3-3-3-3-5-5-6-6-6-6-6-6-6-6----|
|-5-5-5-5-5-5-7-7-8-8-8-8-8-8-8-8------------------------------------|

|--------------------------------------------------------------------|
|--------------------------------------------------------------------|
|--------------------------------------------------------------------|
|---------------------------------8-8-8-8-8-8-7-7-5-5-5-5------------|
|-5-5-5-5-5-5-7-7-8-8-8-8-8-8-8-8-6-6-6-6-6-6-5-5-3-3-3-3-3-3-3-3----|
|-5-5-5-5-5-5-7-7-8-8-8-8-8-8-8-8-------------------------3-3-3-3----|


|--------------------------------------------------------------------|
|--------------------------------------------------------------------|
|--------------------------------------------------------------------|
|---------------------------------5-5-5-5-5-5-7-7-8-8-8-8-8-8-8-8----|
|-5-5-5-5-5-5-7-7-8-8-8-8-8-8-8-8-3-3-3-3-3-3-5-5-6-6-6-6-6-6-6-6----|
|-5-5-5-5-5-5-7-7-8-8-8-8-8-8-8-8------------------------------------|

|--------------------------------------------------------------------|
|--------------------------------------------------------------------|
|--------------------------------------------------------------------|
|---------------------------------8-8-8-8-8-8-7-7-5-5-5-5------------|
|-5-5-5-5-5-5-7-7-8-8-8-8-8-8-8-8-6-6-6-6-6-6-5-5-3-3-3-3-3-3-3-3----|
|-5-5-5-5-5-5-7-7-8-8-8-8-8-8-8-8-------------------------3-3-3-3----|

|---------------------------------------------------------------------------|
|---------------------------------------------------------------------------|
|---------------------------------------------------------------------------|
|---------------------------------------------------------------------------|
|-1------------(1)-----------------------(1)-------------------(1)----1-----|
|-1------------(1)-----------------------(1)-------------------(1)----1-----|


 Guitar 1 (clean)
|------------------------------------------------------------------|
|-18----------18----------18----------18----------18---------------|
|-----17----------17----------17----------17----------17-----------|
|---------20----------20----------20----------20----------20-------|
|------------------------------------------------------------------|
|------------------------------------------------------------------|


 Guitar 2
|----------------------------------------------------|
|----------------------------------------------------|
|----------------------------------------------------|
|-8--8--8--8--8--8--8--8--8--8--8--8--8--8--8--8-----|
|-8--8--8--8--8--8--8--8--8--8--8--8--8--8--8--8-----|
|-8--8--8--8--8--8--8--8--8--8--8--8--8--8--8--8-----|


 Guitar 1 (clean)
|-------------------------------------------------------------------|
|-18----------18----------18----------18----------18----------------|
|-----17----------17----------17----------17----------17------------|
|---------19----------19----------19----------19----------19--------|
|-------------------------------------------------------------------|
|-------------------------------------------------------------------|


 Guitar 2
|----------------------------------------------------|
|----------------------------------------------------|
|----------------------------------------------------|
|-7--7--7--7--7--7--7--7--7--7--7--7--7--5--5--5-----|
|-3--3--3--3--3--3--3--3--3--3--3--3--3--3--3--3-----|
|-3--3--3--3--3--3--3--3--3--3--3--3--3--------------|


 Guitar 1 (clean)
|------------------------------------------------------------------|
|-18----------18----------18----------18----------18---------------|
|-----17----------17----------17----------17----------17-----------|
|---------20----------20----------20----------20----------20-------|
|------------------------------------------------------------------|
|------------------------------------------------------------------|


 Guitar 2
|----------------------------------------------------|
|----------------------------------------------------|
|----------------------------------------------------|
|-8--8--8--8--8--8--8--8--8--8--8--8--8--8--8--8-----|
|-5--5--5--5--5--5--5--5--5--5--5--5--5--5--5--5-----|
|-5--5--5--5--5--5--5--5--5--5--5--5--5--5--5--5-----|


 Guitar 1 (clean)
|------------------------------------------------------------------|
|-18----------18----------18----------18----------18---------------|
|-----17----------17----------17----------17----------17-----------|
|---------20----------20----------20----------20----------20-------|
|------------------------------------------------------------------|
|------------------------------------------------------------------|


 Guitar 2
|-----------------------------------------------------|
|-----------------------------------------------------|
|-----------------------------------------------------|
|-8--8--8--8--8--8--8--8--8--8--8--8--8--8--8--8------|
|-6--6--6--6--6--6--6--6--6--6--6--6--6--6--6--6------|
|-----------------------------------------------------|


 Guitar 1 (clean)
|------------------------------------------------------------------|
|-18----------18----------18----------18----------18---------------|
|-----17----------17----------17----------17----------17-----------|
|---------20----------20----------20----------20----------20-------|
|------------------------------------------------------------------|
|------------------------------------------------------------------|


 Guitar 2
|----------------------------------------------------|
|----------------------------------------------------|
|----------------------------------------------------|
|-8--8--8--8--8--8--8--8-----8--8--8--8--8--8--8-----|
|-8--8--8--8--8--8--8--8-----8--8--8--8--8--8--8-----|
|-8--8--8--8--8--8--8--8-----8--8--8--8--8--8--8-----|


 Guitar 1 (clean)
|-------------------------------------------------------------------|
|-18----------18----------18----------18----------18----------------|
|-----17----------17----------17----------17----------17------------|
|---------19----------19----------19----------19----------19--------|
|-------------------------------------------------------------------|
|-------------------------------------------------------------------|


 Guitar 2
|----------------------------------------------------|
|----------------------------------------------------|
|----------------------------------------------------|
|-7--7--7--7--7--7--7--7-----7--7--7--7--7--7--7-----|
|-3--3--3--3--3--3--3--3-----3--3--3--3--3--3--3-----|
|-3--3--3--3--3--3--3--3-----3--3--3--3--3--3--3-----|


 Guitar 1 (clean)
|------------------------------------------------------------------|
|-18----------18----------18----------18----------18---------------|
|-----17----------17----------17----------17----------17-----------|
|---------20----------20----------20----------20----------20-------|
|------------------------------------------------------------------|
|------------------------------------------------------------------|


 Guitar 2
|----------------------------------------------------|
|----------------------------------------------------|
|----------------------------------------------------|
|-8--8--8--8--8--8--8--8-----8--8--8--8--8--8--8-----|
|-5--5--5--5--5--5--5--5-----5--5--5--5--5--5--5-----|
|-5--5--5--5--5--5--5--5-----5--5--5--5--5--5--5-----|


 Guitar 1 (clean)
|------------------------------------------------------------------|
|-18----------18----------18----------18----------18---------------|
|-----17----------17----------17----------17----------17-----------|
|---------20----------20----------20----------20----------20-------|
|------------------------------------------------------------------|
|------------------------------------------------------------------|


 Guitar 2
|-----------------------------------------------------|
|-----------------------------------------------------|
|-----------------------------------------------------|
|-8--8--8--8--8--8--8--8-----8--8--8--8--8--8--8------|
|-6--6--6--6--6--6--6--6-----6--6--6--6--6--6--6------|
|-----------------------------------------------------|

|------------------------------|
|------------------------------|
|------------------------------|
|--7------------(7)------------|
|--3------------(3)------------|
|--3------------(3)------------|


 Guitar 1 (clean w/ echo)
|------------------------------------------------------------------------|
|-11------11------13------15-------13--------13------15------16-------15-|
|-----12------12------12--------12-------12------12------12--------15----|
|------------------------------------------------------------------------|
|------------------------------------------------------------------------|
|------------------------------------------------------------------------|

|------------------------------------------------------------------|
|------15------16------18-------18--------18------16------15-------|
|--15------15------15--------15-------15------15------15-----------|
|------------------------------------------------------------------|
|------------------------------------------------------------------|
|------------------------------------------------------------------|


 Guitar 2
|---------------------------------------------------------------------------|
|---------------------------------------------------------------------------|
|---------------------------------------------------------------------------|
|--------------------------------------------8--------------(8)-------------|
|--------------------------------------------6--------------(6)-------------|
|---------------------------------------------------------------------------|
                                             fade in ------------------>

 Guitar 1 (clean w/ echo)
|---------------------------------------------------------------------------|
|---11-------11------13------15-------13--------13------15------16-------15-|
|12------12------12------12--------12-------12------12------12--------15----|
|---------------------------------------------------------------------------|
|---------------------------------------------------------------------------|
|---------------------------------------------------------------------------|

|------------------------------------------------------------------|
|------15------16------18-------18--------18------16------15-------|
|--15------15------15--------15-------15------15------15-----------|
|------------------------------------------------------------------|
|------------------------------------------------------------------|
|------------------------------------------------------------------|


 Guitar 2
|--------------------------------------------|
|--------------------------------------------|
|--------------------------------------------|
|--------------------------------------------|
|-1------1---------------------5-------5-----|
|-1------1---------------------5-------5-----|
  .      .                     .       .

|--------------------------------------------|
|--------------------------------------------|
|--------------------------------------------|
|--------------------------------------------|
|-5--------(5)--------8---8---8---8---8------|
|-5--------(5)--------8---8---8---8---8------|
                      .   .   .   .

 Guitar 1 & 2
|--------------------------------------------------------------------|
|--------------------------------------------------------------------|
|--------------------------------------------------------------------|
|---------------------------------5-5-5-5-5-5-7-7-8-8-8-8-8-8-8-8----|
|-5-5-5-5-5-5-7-7-8-8-8-8-8-8-8-8-3-3-3-3-3-3-5-5-6-6-6-6-6-6-6-6----|
|-5-5-5-5-5-5-7-7-8-8-8-8-8-8-8-8------------------------------------|

|--------------------------------------------------------------------|
|--------------------------------------------------------------------|
|--------------------------------------------------------------------|
|---------------------------------8-8-8-8-8-8-7-7-5-5-5-5------------|
|-5-5-5-5-5-5-7-7-8-8-8-8-8-8-8-8-6-6-6-6-6-6-5-5-3-3-3-3-3-3-3-3----|
|-5-5-5-5-5-5-7-7-8-8-8-8-8-8-8-8-------------------------3-3-3-3----|


|--------------------------------------------------------------------|
|--------------------------------------------------------------------|
|--------------------------------------------------------------------|
|---------------------------------5-5-5-5-5-5-7-7-8-8-8-8-8-8-8-8----|
|-5-5-5-5-5-5-7-7-8-8-8-8-8-8-8-8-3-3-3-3-3-3-5-5-6-6-6-6-6-6-6-6----|
|-5-5-5-5-5-5-7-7-8-8-8-8-8-8-8-8------------------------------------|

|--------------------------------------------------------------------|
|--------------------------------------------------------------------|
|--------------------------------------------------------------------|
|---------------------------------8-8-8-8-8-8-7-7-5-5-5-5------------|
|-5-5-5-5-5-5-7-7-8-8-8-8-8-8-8-8-6-6-6-6-6-6-5-5-3-3-3-3-3-3-3-3----|
|-5-5-5-5-5-5-7-7-8-8-8-8-8-8-8-8-------------------------3-3-3-3----|

|--------------------------------------------------------------------|
|--------------------------------------------------------------------|
|--------------------------------------------------------------------|
|--------------------------------------------------------------------|
|-1------(1)-------3---------(3)-------5-----------------------------|
|-1------(1)-------3---------(3)-------5-----------------------------|



************************************

| .   palm mute
| /   slide up
| \   slide down
| h   hammer-on
| p   pull-off
| ~   vibrato
| *   harmonic
| x   Mute note
| b   Bend
| pb  Pre-bend
| br  Bend release
| pbr Pre-bend release
| brb Bend release bend

************************************





Comments


Popular National Product tabs & chords
Love Me Chords
By All Means Tabs
Explode Tabs
Love Me Tabs
Where Do You Go Tabs
Where Do You Go 1 Tabs
Love Me Ukulele


Song lyrics



↑ Back to top | Tablatures and chords are parodies/interpretations of the original songs. You may use it for private study, scholarship, research or language learning purposes only
© 2014 AZChords.com Contact us | Privacy policy | DMCA | Add/correct tabs | Request tabs | Top 50 tabs