>
 >
Love Me

Love Me Guitar Tabs

National Product - Love Me chords, tabs, tablatures, lyrics

Guitar lessons | Add/correct | Request | Top 50 tabs Artists:  A B C D E F G H I J K L M N O P Q R S T U V W X Y Z 0-9

Love Me Guitar Tabs – National Product

CD, Sheet music, Poster

Do you like Love Me? Share with your friends now
ChordsTabsUkulele
Tuning:drop C
chords used:
D|--------------------------------------------------|
A|--------------------------------------------------|
F|--------------------------------------------------|
C|-3-----5----7----3----2---------------------------|
G|-3-----5----7----3----2---------------------------|
C|-1-----3----5----3--------------------------------|

intro:  
D|------------------------------------------|
A|------------------------------------------|
F|------------------------------------------|
C|-3-----5----7--5--5----5----1-------------|
G|-3-----5----7--5--5----5----1-------------|
C|-1-----3----5--7--7----3----3-------------|
verse 1:

D|-------------------------------|
A|-------------------------------|
F|-------------------------------|
C|-3-7-3-5-7-3-5-7-5-3-----------|
G|-3-7-3-5-7-3-5-7-5-3-----------|
C|-1-5-1-3-5-1-3-5-3-1-----------|

Oh, the moon burns tonight
like a thousand stabbing lights directed towards mine.
Bend and break with the light 
as we rise one last time.

Prechorus:
D|-----------------|
A|-----------------|
F|-----------------|
C|-3-----5---------|
G|-3-----5---------|
C|-1-----3---------|

So don't say you don't care when you know that I do...

chorus:
D|-----------------------------------------|
A|-----------------------------------------|
F|-----------------------------------------|
C|-7-3-3-5-7-3-5-3-7-3-3-3-----------------|
G|-7-3-3-5-7-3-5-3-7-3-3-3-----------------|
C|-5-1-3-3-5-1-3-3-5-1-3-1-----------------|

Write down every little thing that makes you love me, ooh
right now, remember how I held you above me, yeah.

Verse 2:(same pattern........)

So don't say that you don't care when you know that I do,
don't make it unfair girl, you know that you do.

Prechorus:(same pattern just repeat one more time)
Write down every little thing that makes you love me, oh
Right now remember how I held you above me, yeah


e|---------------------------------------------------|
B|---------------------------------------------------|
G|---------------------------------------------------|
D|-2-----3----7----2---3--7--------------------------|
A|-2-----3----7----2---3--7--------------------------|
E|-------1----5--------1--5--------------------------|
'Cause this may be the last love
the last touch
the last to shine, to shine

e|-----------------------------------------|
B|-----------------------------------------|
G|-----------------------------------------|
D|-7-3-3-5-7-3-5-3-7-3-3-3-----------------|
A|-7-3-3-5-7-3-5-3-7-3-3-3-----------------|
E|-5-1-3-3-5-1-3-3-5-1-3-1-----------------|
Every little thing that makes you love me
Every little thing that makes you love me
Write down... end(>.<)
thanks i hope u apriciate it.......





Comments


Popular National Product tabs & chords
Love Me Chords
By All Means Tabs
Explode Tabs
Paper And Ink Tabs
Where Do You Go Tabs
Where Do You Go 1 Tabs
Love Me Ukulele


Song lyrics



↑ Back to top | Tablatures and chords are parodies/interpretations of the original songs. You may use it for private study, scholarship, research or language learning purposes only
© 2014 AZChords.com Contact us | Privacy policy | DMCA | Add/correct tabs | Request tabs | Top 50 tabs