>
 >
Explode

Explode Guitar Tabs

National Product - Explode chords, tabs, tablatures, lyrics

Guitar lessons | Add/correct | Request | Top 50 tabs Artists:  A B C D E F G H I J K L M N O P Q R S T U V W X Y Z 0-9

Explode Guitar Tabs – National Product

CD, Sheet music, Poster

Do you like Explode? Share with your friends now
Tabs
-------------------------------------------------------------------------------
-------------------------------------------------------------------------------

Tuning:
Here's my try at tabbing out this song.
This isn't how they actually play it, its how you would play it if you were playing by 
on acoustic.

Intro/Verse:

   1 e & a 2 e & a 3 e & a 4 e & a  1 e & a 2 e & a 3 e & a 4 e & a
eb|0-------0-----0-0-0-0-----------|0-0-----0-----0-0-0-0-----0-0-0-|
Bb|0-------0-----0-0-0-0-----------|0-0-----0-----0-0-0-0-----0-0-0-|
Gb|9-------9-----9\7-7-7-----------|7/9-----9-----9\7-7-7-----7-7-7-|
Db|9-------9-----9\7-7-7-----------|7/9-----9-----9\7-7-7-----7-7-7-|
Ab|7-------7-----7\5-5-5-----------|5/7-----7-----7\5-5-5-----5-5-5-|
Eb|0-------0-----0-0-0-0-----------|0-0-----0-----0-0-0-0-----0-0-0-|
                                                                      X4
   1 e & a 2 e & a 3 e & a 4 e & a  1 e & a 2 e & a 3 e & a 4 e & a
eb|--------------------------------|--------------------------------|
Bb|5/3-3---3---------------1/3-3-3-|5/3-3---3---------------1/3-----|
Gb|0/0-0---0---------------0/0-0-0-|0/0-0---0---------------0/0-----|
Db|4/2-2---2---------------2/4-4-4-|4/2-2---2---------------2/4-----|
Ab|5/3-3---3---------------3/5-5-5-|5/3-3---3---------------3/5-----|
Eb|--------------------------------|--------------------------------|


Pre-Chorus:

   1   &   2   &   3   &   4   &    1   &   2   &   3   &   4   &
eb|3-3-3-3-3-3-3-3-3-3-3-3-3-3-3-3-|3-3-3-3-3-3-3-3-3-3-3-3-3-3-3-3-|
Bb|3-3-3-3-3-3-3-3-3-3-3-3-3-3-3-3-|3-3-3-3-3-3-3-3-3-3-3-3-3-3-3-3-|
Gb|0-0-0-0-0-0-0-0-2-2-2-2-2-2-2-2-|0-0-0-0-0-0-0-0-0-0-0-0-0-0-0-0-| X2
Db|2-2-2-2-2-2-2-2-0-0-0-0-0-0-0-0-|2-2-2-2-2-2-2-2-0-0-0-0-0-0-0-0-|
Ab|3-3-3-3-3-3-3-3-0-0-0-0-0-0-0-0-|2-2-2-2-2-2-2-2-2-2-2-2-2-2-2-2-|
Eb|0-0-0-0-0-0-0-0-2-2-2-2-2-2-2-2-|0-0-0-0-0-0-0-0-3-3-3-3-3-3-3-3-|

   1 & 2 & 3 & 4 &  1 & 2 & 3 & 4 &
eb|3---------------|3~-------------|
Bb|3---------------|---3~----------|
Gb|0---------------|------0~-------|
Db|2---------------|---------------|
Ab|3---------------|---------------|
Eb|----------------|---------------|
   ~~~slow strum~~~

Chorus:

   1 & 2 & 3 & 4 &  1 & 2 & 3 & 4 &   1 & 2 & 3 & 4 &  1 & 2 & 3 & 4 &
eb|3-----3---3-3---|--3---3-3---3-3-|3-----3---3-3----|-3---3-3---3-3-|
Bb|3-----3---3-3---|--3---3-3---3-3-|3-----3---3-3----|-3---3-3---3-3-|
Gb|0-----0---0-0---|--0---0-0---0-0-|0-----0---0-0----|-0---0-0---0-0-|
Db|2-----------2---|--------2-------|0-----------0----|-------0-------|
Ab|2-----------2---|--------2-------|2-----------2----|-------2-------|
Eb|0-----------0---|--------0-------|3-----------3----|-------3-------|

                                                                          X2

   1 & 2 & 3 & 4 &  1 & 2 & 3 & 4 &  1 & 2 & 3 & 4 &  1 & 2 & 3 & 4 &
eb|3---3-3-----3---|3-3-----3-3-----|----------------|----------------|
Bb|3---3-3-----3---|3-3-----3-3-----|3---3-3-3---3/5-|5---5-5-5---5-5-|
Gb|2---2-2-----2---|2-2-----2-2-----|0---0-0-0---0/0-|0---0-0-0---0-0-|
Db|0---0-0-----0---|0-0-----0-0-----|2---2-2-2---2/4-|4---4-4-4---4-4-|
Ab|0---0-0-----0---|0-0-----0-0-----|3---3-3-3---3/5-|5---5-5-5---5-5-|
Eb|2---2-2-----2---|2-2-----2-2-----|----------------|----------------|

   1 & 2 & 3 & 4 &  1 & 2 & 3 & 4 &
eb|3---------------|3~-------------|
Bb|3---------------|---3~----------|
Gb|0---------------|------0~-------|
Db|2---------------|---------------|
Ab|3---------------|---------------|
Eb|----------------|---------------|
   ~~~slow strum~~~

Verse X2

Pre-Chorus:

   1   &   2   &   3   &   4   &    1   &   2   &   3   &   4   &
eb|3-3-3-3-3-3-3-3-3-3-3-3-3-3-3-3-|3-3-3-3-3-3-3-3-3-3-3-3-3-3-3-3-|
Bb|3-3-3-3-3-3-3-3-3-3-3-3-3-3-3-3-|3-3-3-3-3-3-3-3-3-3-3-3-3-3-3-3-|
Gb|0-0-0-0-0-0-0-0-2-2-2-2-2-2-2-2-|0-0-0-0-0-0-0-0-0-0-0-0-0-0-0-0-|
Db|2-2-2-2-2-2-2-2-0-0-0-0-0-0-0-0-|2-2-2-2-2-2-2-2-0-0-0-0-0-0-0-0-|
Ab|3-3-3-3-3-3-3-3-0-0-0-0-0-0-0-0-|2-2-2-2-2-2-2-2-2-2-2-2-2-2-2-2-|
Eb|0-0-0-0-0-0-0-0-2-2-2-2-2-2-2-2-|0-0-0-0-0-0-0-0-3-3-3-3-3-3-3-3-|

   1   &   2   &   3   &   4   &    1   &   2   &   3   &   4   &
eb|3-3-3-3-3-3-3-3-3-3-3-3-3-3-3-3-|3-3-3-3-3-3-3---3-----3-----3---|
Bb|3-3-3-3-3-3-3-3-3-3-3-3-3-3-3-3-|3-3-3-3-3-3-3---3-----3-----3---|
Gb|0-0-0-0-0-0-0-0-2-2-2-2-2-2-2-2-|0-0-0-0-0-0-0---0-----2-----0---|
Db|2-2-2-2-2-2-2-2-0-0-0-0-0-0-0-0-|0-0-0-0-0-0-0---2-----0-----0---|
Ab|3-3-3-3-3-3-3-3-0-0-0-0-0-0-0-0-|2-2-2-2-2-2-2---3-----0-----2---|
Eb|0-0-0-0-0-0-0-0-2-2-2-2-2-2-2-2-|3-3-3-3-3-3-3---------2-----3---|

Chorus:

   1 & 2 & 3 & 4 &  1 & 2 & 3 & 4 &   1 & 2 & 3 & 4 &  1 & 2 & 3 & 4 &
eb|3-----3---3-3---|--3---3-3---3-3-|3-----3---3-3---|--3---3-3---3-3-|
Bb|3-----3---3-3---|--3---3-3---3-3-|3-----3---3-3---|--3---3-3---3-3-|
Gb|0-----0---0-0---|--0---0-0---0-0-|0-----0---0-0---|--0---0-0---0-0-|
Db|2-----------2---|--------2-------|0-----------0---|--------0-------|
Ab|2-----------2---|--------2-------|2-----------2---|--------2-------|
Eb|0-----------0---|--------0-------|3-----------3---|--------3-------|

                                                                          X2

   1 & 2 & 3 & 4 &  1 & 2 & 3 & 4 &  1 & 2 & 3 & 4 &  1 & 2 & 3 & 4 &
eb|3---3-3-----3---|3-3-----3-3-----|----------------|----------------|
Bb|3---3-3-----3---|3-3-----3-3-----|3---3-3-3---3/5-|5---5-5-5---5-5-|
Gb|2---2-2-----2---|2-2-----2-2-----|0---0-0-0---0/0-|0---0-0-0---0-0-|
Db|0---0-0-----0---|0-0-----0-0-----|2---2-2-2---2/4-|4---4-4-4---4-4-|
Ab|0---0-0-----0---|0-0-----0-0-----|3---3-3-3---3/5-|5---5-5-5---5-5-|
Eb|2---2-2-----2---|2-2-----2-2-----|----------------|----------------|

   1 & 2 & 3 & 4 &  1 & 2 & 3 & 4 &
eb|3---3-3-3---3/5-|5---5-5-5---5-5-|
Bb|3---3-3-3---3/5-|5---5-5-5---5-5-|
Gb|0---0-0-0---0/0-|0---0-0-0---0-0-|
Db|2---2-2-2---2/4-|4---4-4-4---4-4-|
Ab|3---3-3-3---3/5-|5---5-5-5---5-5-|
Eb|----------------|----------------|


Bridge 1

   1 & 2 & 3 & 4 &  1 & 2 & 3 & 4 &   1 & 2 & 3 & 4 &  1 & 2 & 3 & 4 &
eb|3-----3---3-3---|--3---3-3---3-3--|3-----3---3-3---|--3---3-3---3-3-|
Bb|3-----3---3-3---|--3---3-3---3-3--|3-----3---3-3---|--3---3-3---3-3-|
Gb|0-----0---0-0---|--0---0-0---0-0--|0-----0---0-0---|--0---0-0---0-0-|
Db|2-----------2---|--------2--------|0-----------0---|--------0-------|
Ab|2-----------2---|--------2--------|2-----------2---|--------2-------|
Eb|0-----------0---|--------0--------|3-----------3---|--------3-------|
                                                                          X2
   1 & 2 & 3 & 4 &  1 & 2 & 3 & 4 &   1 & 2 & 3 & 4 &  1 & 2 & 3 & 4 &
eb|3-----3---3-3---|--3---3-3---3-3--|3-----3---3-3---|--3---3-3---3-3-|
Bb|3-----3---3-3---|--3---3-3---3-3--|3-----3---3-3---|--3---3-3---3-3-|
Gb|0-----0---0-0---|--0---0-0---0-0--|2-----2---2-2---|--2---2-2---2-2-|
Db|2-----------2---|--------2--------|0-----------0---|--------0-------|
Ab|3-----------3---|--------3--------|0-----------0---|--------0-------|
Eb|----------------|-----------------|2-----------2---|--------2-------|

Bridge 2

   1 & 2 & 3 & 4 &  1 & 2 & 3 & 4 &  1 & 2 & 3 & 4 &  1 & 2 & 3 & 4 &
eb|3--3--3-3-------|3--3--3-3---3---|0--0--0-0-------|0--0--0-0---0---|
Bb|3--3--3-3-------|3--3--3-3---3---|0--0--0-0-------|0--0--0-0---0---|
Gb|0--0--0-0-------|0--0--0-0---0---|7--7--7-7-------|7--7--7-7/9-9---|
Db|2--2--2-2-------|2--2--2-0---0---|7--7--7-7-------|7--7--7-7/9-9---|
Ab|2--2--2-2-------|3--3--3-2---2---|5--5--5-5-------|5--5--5-5/7-7---|
Eb|0--0--0-0-------|--------3---3---|0--0--0-0-------|0--0--0-0---0---|

   1 & 2 & 3 & 4 &  1 & 2 & 3 & 4 &  1 & 2 & 3 & 4 &  1 & 2 & 3 & 4 &
eb|3--3--3-3-------|3--3--3-3---3---|3-3-3-3-3-3-3-3-|3-3-3-3-3-3-3-3-|
Bb|3--3--3-3-------|3--3--3-3---3---|3-3-3-3-3-3-3-3-|3-3-3-3-3-3-3-3-|
Gb|0--0--0-0-------|0--0--0-0---0---|2-2-2-2-0-0-0-0-|0-0-0-0-0-0-2-2-| X2
Db|2--2--2-2-------|2--2--2-0---0---|0-0-0-0-2-2-2-2-|0-0-0-0-0-0-0-0-|
Ab|2--2--2-2-------|3--3--3-2---2---|0-0-0-0-2-2-2-2-|2-2-2-2-2-2-0-0-|
Eb|0--0--0-0-------|--------3---3---|2-2-2-2-0-0-0-0-|3-3-3-3-3-3-2-2-|


Pre-Chorus:

   1   &   2   &   3   &   4   &    1   &   2   &   3   &   4   &
eb|3-3-3-3-3-3-3-3-3-3-3-3-3-3-3-3-|3-3-3-3-3-3-3-3-3-3-3-3-3-3-3-3-|
Bb|3-3-3-3-3-3-3-3-3-3-3-3-3-3-3-3-|3-3-3-3-3-3-3-3-3-3-3-3-3-3-3-3-|
Gb|0-0-0-0-0-0-0-0-2-2-2-2-2-2-2-2-|0-0-0-0-0-0-0-0-0-0-0-0-0-0-0-0-|
Db|2-2-2-2-2-2-2-2-0-0-0-0-0-0-0-0-|2-2-2-2-2-2-2-2-0-0-0-0-0-0-0-0-|
Ab|3-3-3-3-3-3-3-3-0-0-0-0-0-0-0-0-|2-2-2-2-2-2-2-2-2-2-2-2-2-2-2-2-|
Eb|0-0-0-0-0-0-0-0-2-2-2-2-2-2-2-2-|0-0-0-0-0-0-0-0-3-3-3-3-3-3-3-3-|

   1   &   2   &   3   &   4   &    1   &   2   &   3   &   4   &
eb|3-3-3-3-3-3-3-3-3-3-3-3-3-3-3-3-|3-3-3-3-3-3-3-3-3-3-3-3-3--3--3-|
Bb|3-3-3-3-3-3-3-3-3-3-3-3-3-3-3-3-|3-3-3-3-3-3-3-3-3-3-3-3-3--3--3-|
Gb|0-0-0-0-0-0-0-0-2-2-2-2-2-2-2-2-|0-0-0-0-0-0-0-0-0-0-0-0-0--2--0-|
Db|2-2-2-2-2-2-2-2-0-0-0-0-0-0-0-0-|2-2-2-2-2-2-2-2-0-0-0-0-2--0--0-|
Ab|3-3-3-3-3-3-3-3-0-0-0-0-0-0-0-0-|2-2-2-2-2-2-2-2-2-2-2-2-3--0--2-|
Eb|0-0-0-0-0-0-0-0-2-2-2-2-2-2-2-2-|0-0-0-0-0-0-0-0-3-3-3-3----2--3-|

Chorus X2

   1 & 2 & 3 & 4 &  1 & 2 & 3 & 4 &  1 & 2 & 3 & 4 &  1 & 2 & 3 & 4 &
eb|3-----3---3-3---|--3---3-3---3-3-|3-----3---3-3---|--3---3-3---3-3-|
Bb|3-----3---3-3---|--3---3-3---3-3-|3-----3---3-3---|--3---3-3---3-3-|
Gb|0-----0---0-0---|--0---0-0---0-0-|0-----0---0-0---|--0---0-0---0-0-|
Db|2-----------2---|--------2-------|0-----------0---|--------0-------|
Ab|2-----------2---|--------2-------|2-----------2---|--------2-------|
Eb|0-----------0---|--------0-------|3-----------3---|--------3-------|

                                                                          X3

   1 & 2 & 3 & 4 &  1 & 2 & 3 & 4 &  1 & 2 & 3 & 4 &  1 & 2 & 3 & 4 &
eb|3---3-3-----3---|3-3-----3-3-----|----------------|----------------|
Bb|3---3-3-----3---|3-3-----3-3-----|3---3-3-3---3/5-|5---5-5-5---5-5-|
Gb|2---2-2-----2---|2-2-----2-2-----|0---0-0-0---0/0-|0---0-0-0---0-0-|
Db|0---0-0-----0---|0-0-----0-0-----|2---2-2-2---2/4-|4---4-4-4---4-4-|
Ab|0---0-0-----0---|0-0-----0-0-----|3---3-3-3---3/5-|5---5-5-5---5-5-|
Eb|2---2-2-----2---|2-2-----2-2-----|----------------|----------------|

   1 & 2 & 3 & 4 &  1 & 2 & 3 & 4 &
eb|3---3-3-3---3/5-|5---5-5-5---5-5-|3~--------------|
Bb|3---3-3-3---3/5-|5---5-5-5---5-5-|3~--------------|
Gb|0---0-0-0---0/0-|0---0-0-0---0-0-|0~--------------|
Db|2---2-2-2---2/4-|4---4-4-4---4-4-|2~--------------|
Ab|3---3-3-3---3/5-|5---5-5-5---5-5-|3~--------------|
Eb|----------------|----------------|----------------|





Comments


Popular National Product tabs & chords
Love Me Chords
By All Means Tabs
Love Me Tabs
Paper And Ink Tabs
Where Do You Go Tabs
Where Do You Go 1 Tabs
Love Me Ukulele


Song lyrics



↑ Back to top | Tablatures and chords are parodies/interpretations of the original songs. You may use it for private study, scholarship, research or language learning purposes only
© 2014 AZChords.com Contact us | Privacy policy | DMCA | Add/correct tabs | Request tabs | Top 50 tabs