» » »

National Anthems, God Defend New Zealand Tabs (ver.1)

Artists:  A B C D E F G H I J K L M N O P Q R S T U V W X Y Z # 

God Defend New Zealand Tabs (ver.1)

National Anthems Tabs
 Rating:
4/5 (4 votes)
God Defend New Zealand lessons Tabs too difficult? Try these video lessons and learn fast
1
                enjoy my fellow kiwis...

|-3-2-3----7--7-5-3~-----7---5--3-2-1------|
|-------3--------------5---3----------4-2~-|
|------------------------------------------|
|------------------------------------------|
|------------------------------------------|
|------------------------------------------|

|-3----------------------------5--3-2-3~---|
|---3--5--7--8--10-12~--12--8--5-----------|
|------------------------------------------|
|------------------------------------------|
|------------------------------------------|
|------------------------------------------|

|-10--10--10-------10--10--12--10~-|
|------------8--10-----------------|
|----------------------------------|
|----------------------------------|
|----------------------------------|
|----------------------------------|

|------------------------------------|
|-10--12-13--12--10--8-7-8-7--5--3~--|
|------------------------------------|
|------------------------------------|
|------------------------------------|
|------------------------------------|

|-3----------------10~--10--8-7-8--7~--5~--3~~-|
|---3--5--7--8--10-----------------------------|
|----------------------------------------------|
|----------------------------------------------|
|----------------------------------------------|
|----------------------------------------------|
            
Submit corrections

comments powered by Disqus
↑ Back to top | National Anthems Tabs for God Defend New Zealand. Lyrics for acoustic guitar and electric guitar. 1 Tablatures and chords are parodies/interpretations of the original songs. You may use it for private study, scholarship, research or language learning purposes only