» » »

Trust Tabs (ver.1)

Artists:  A B C D E F G H I J K L M N O P Q R S T U V W X Y Z # 

Trust Tabs (ver.1)

The National
Rating:
0/5 (0 votes)

Hard to play? Try these video lessons and learn fast.
                National
Composed and written by Christopher santaw

Intro
E|----------|-----|x2
B|----------|-----|
G|----------|-----|
D|-1-3------|-----|
A|-----6-8--|-----|
E|----------|-6-4-|

E|-------------------------------------
B|-------------------------------------
G|-33333333----------55555555----------
D|-33333333-33333333-55555555-55555555-
A|-11111111-33333333-33333333-55555555-
E|----------11111111----------33333333-

Verse
E|---------|
B|---------|(once before and after the line)
G|---9-6---|
D|-7-9-6-7-|
A|-7-7-4-7-|
E|-5-----5-|

Chorus
E|-------------------------------------------------------------------x2
B|---------------------------------------------------------------------
G|------------------9999999999999999-6666666666666666------------------
D|-7777777777777777-9999999999999999-6666666666666666-7777777777777777-
A|-7777777777777777-7777777777777777-4444444444444444-7777777777777777-
E|-5555555555555555-----------------------------------5555555555555555-

Interlude
E|---------------------------------------------------------------------
B|---------------------------------------------------------------------
G|------------------9999999999999999-6666666666666666------------------
D|-7777777777777777-9999999999999999-6666666666666666-7777777777777777-
A|-7777777777777777-7777777777777777-4444444444444444-7777777777777777-
E|-5555555555555555-----------------------------------5555555555555555-

Lyrics

Intro
There’s me 
Walking along
On the side of the road

I know
That it won’t take long
For me to be gone

Verse 1
I see people
Homeless and in distress
But what they have 
Is nothing compared too this

All of this caused 
By feelings
To bad I can’t feel
So on I go

Chorus
The same old day
With the same old sh*t 
And im fed up 
with all of it

So im gonna do something
About all of it
Cause I can’t feel
Cause I feel nothing

Verse2

I don’t care 
If you don’t call
Because I’ll stop
Doing it all

All for you 
To bad you shut 
Me out of your life
So I just stopped 
Caring

Chorus

Interlude
I stopped feeling
I gotta stop caring
Because I got hurt
Because I had trusted you
            
Hard to play? Try these video lessons and learn fast. | Correct




comments powered by Disqus
↑ Back to top | Tablatures and chords are parodies/interpretations of the original songs. You may use it for private study, scholarship, research or language learning purposes only