» » »

That Special Woman Tabs (ver.1)

Artists:  A B C D E F G H I J K L M N O P Q R S T U V W X Y Z # 

That Special Woman Tabs (ver.1)

The National
Rating:
0/5 (0 votes)

Hard to play? Try these video lessons and learn fast.
                National
That special woman
Composed by Christopher santaw

INTRO
E|--------------------------------
B|--------------------------------
G|--------------------------------
D|---------------------5--5-5---5-
A|--5--5-5---3--3-3--33-33-3----0-x16
E|33-33-3--55-55-5--------------3-

VERSE
E|-----------------------------------------------------------------------
B|-----------------------------------------------------------------------
G|-----------------------------------------------------------------------
D|-----------------------------------------------------5555555555555555--
A|5555555555555555--777777777777777--2222222222222222--3333333333333333--
E|3333333333333333--555555555555555--0000000000000000--------------------
  |-------------------------------PM------------------------------------|
(On last line of the song [verse 4] play only 02 once on the last line)

BRIDGE
E|----------------------------------x2
B|------------------------------------
G|------------------------------------
D|---------------------------55555555-
A|55555555-77777777-22222222-33333333-
E|33333333-55555555-00000000----------
  ** ** *  ** ** *  ** ** *  ** ** *

CHORUS
E|--------------------------------------------------------------------
B|--------------------------------------------------------------------
G|--------------------------------------------------------------------
D|-------------------------------5555555555555555-------------------7~
A|5---5---7---7-2222222222222222-3333333333333333---5---5---7---7---7~
E|3---3---5---5-0000000000000000--------------------3---3---5---5---5~
 That...girl..makes..complete (the first 4 strums on those 4 words then on could, another, without, life then the last strum before ‘I could not live’)








Intro
Verse
Bridge
Verse
Chorus
Verse
Bridge 
Verse


LYRICS

Verse1
Everybody’s talking about the new girl
Who just came into town
I know that she’s the one
And I know that weal have fun

On a Sunday night
At my house
I know she’s there 
Spreading love everywhere
 
Bridge

Verse2
I’d make her cry
I’d make her shout
I’d make her wish
That she knew what I was all about

If she were her
If she were real
I’d bring her in 
So I could be sincere

Chorus
That special girl 
Makes my life complete
She just means the world to me
If she were to go away
I could not live another day
Without her in my life
I could not live




Verse3
Yesterday
Something tragic happened on my street
A car lost control
And it hit a pole

The driver hit a girl
She was the one I loved
The last words out of her mouth
Was please don’t go love

I have no choice
But to live on
I will cry myself to sleep
Pumped full of all the drugz

I will not stop
Living life this way
Because of the promise
That I’ll never go away. (Play last chord open and leave this line silent)


This song is as always dedicated to the woman 
I love, shelagh. She is my reason for living and she gives 
Me complete inspiration and she’s my perfect girl
Because I chose her.
Luv ya.
            
Hard to play? Try these video lessons and learn fast. | Correct




comments powered by Disqus
↑ Back to top | Tablatures and chords are parodies/interpretations of the original songs. You may use it for private study, scholarship, research or language learning purposes only