» » »

Fat Kidz Tabs (ver.1)

Artists:  A B C D E F G H I J K L M N O P Q R S T U V W X Y Z # 

Fat Kidz Tabs (ver.1)

The National
Rating:
0/5 (0 votes)

Tabs too difficult? Try these video lessons and learn fast.
                National
Fat kidz

INTRO 
GUITAR 1
E|------------------------------------
B|------------------------------------
G|------------------------------------X2
D|------------------------------------
A|22222222-00000000-00000000-00000000-
E|00000000-22222222-44444444-55555555-
  |-------------------------PM--------|
GUITAR 2
E|------------------------------------
B|------------------------------------
G|---------------------------22222222-
D|22222222-44444444-------------------
A|------------------33333333----------
E|------------------------------------
|---------------------------PM--------|
VERSE
E|----------------------------------------
B|----------------------------------------
G|7-------------------7-------------------
D|7-X8-5----9----7----7-X8-5----9----7-7~-
A|5----5-X8-9-X8-7-X8-5----5-X8-9-X8-7-7~-
E|-----3----7----5---------3----7----5-5~-

CHORUS
GUITAR 1
E|---------------------------
B|---------------------------
G|------6-------8------------
D|4-----6-X16---8-X16-9------X2
A|4-X16-4-------6-----9-X16--
E|2-------------------7------

GUITAR 2

E|------------------------------
B|------------------------------
G|------------------------------
D|------------------------------
A|---------6-X16-8-X16----------
E|-4-X16------------------9-X16-

LYRICS

VERSE 1
I go to school
Get made fun of everyday
Because I’m fat
People don’t look at me the same

They turn around
They don’t bother talking to me
Because im fat
I can’t even play basketball 

Chorus
Im so fat
I have low self-esteem 
People glare at me
But it all seems to be

That they’re the freaks
Because they’re skinny 
I’m not fat 
I’m just normal

Verse 2

Today in gym
The people laughed at me 
Because I broke the balancing beam
And it doesn’t seem to be

That anyone will care 
If I go home 
I’ll get a rope 
And hang myself in the air

Chorus

I’ll hang myself
I’ll get off this earth
I hate my life
Everyone’s a jerk

They laugh at me
Because I weigh too much 
Because of me
My sister won’t be popular
Chorus x2
End


This song is dedicated to my girlfriend shelagh 
Because she has inspired me in every way
And I love her.
            
Tabs too difficult? Try these video lessons and learn fast.




comments powered by Disqus
↑ Back to top | Tablatures and chords are parodies/interpretations of the original songs. You may use it for private study, scholarship, research or language learning purposes only