» » »

Laid Tabs (ver.1)

Artists:  A B C D E F G H I J K L M N O P Q R S T U V W X Y Z # 

Laid Tabs (ver.1)

Nathanson Matt
Rating:
0/5 (0 votes)

Hard to play? Try these video lessons and learn fast.
                Intro/Verse/Chorus

e---3-3-3-5-3---3-3---3-3-3-5-3---3-3---3-3-3-5-3---3-3-3-3-3-3-3-
b---1-1-1-3-1---3-3---1-1-1-3-1---3-3---1-1-1-3-1---3-3-3-3-3-3-3-
g-----------------------------------------------------------------
d---2-2-2-4-2---------2-2-2-4-2---------2-2-2-4-2-----------------
a---3-3-3-5-3---2-2---3-3-3-5-3---2-2---3-3-3-5-3---2-2-2-2-2-2-2-
e---x-x-x-x-x---3-3---x-x-x-x-x---3-3---x-x-x-x-x---3-3-3-3-3-3-3-


e---1-1-1-1-1-1-1-1-1-1---
b-------------------------
g---2-2-2-2-2-2-2-2-2-2---        <----- * use this part
d---3-3-3-3-3-3-3-3-3-3---
a---3-3-3-3-3-3-3-3-3-3---
e---1-1-1-1-1-1-1-1-1-1---



Lyrics:

This bed is on fire with passionate love
The neighbors complain about the noises above
But she only comes when she's on top

My therapist said not to see you no more
She said you're like a disease without any cure
She said I'm so obsessed that I'm becoming a bore, oh no

* Ah you think you're so pretty [Then do intro to this part (eeeeeeeeeeeee)]

Caught your hand inside the till
Slammed your fingers in the door
Fought with kitchen knives and skewers
Dressed me up in womens clothes
Messed around with gender roles

* Line my eyes and call me pretty (Then do intro again)

Moved out of the house so you moved next door
I locked you out you cut a hole in the wall
I found you sleeping next to me I thought I was alone

* You're driving me crazy when are you coming home? (Then do intro again)
            
Hard to play? Try these video lessons and learn fast. | Correct




comments powered by Disqus
↑ Back to top | Tablatures and chords are parodies/interpretations of the original songs. You may use it for private study, scholarship, research or language learning purposes only