>
 >
Unwritten

Unwritten Guitar Tabs

Natasha Bedingfield - Unwritten chords, tabs, tablatures, lyrics

Guitar lessons | Add/correct | Request | Top 50 tabs Artists:  A B C D E F G H I J K L M N O P Q R S T U V W X Y Z 0-9

Unwritten Guitar Tabs – Natasha Bedingfield

CD, Sheet music, Poster

Do you like Unwritten? Share with your friends now
ChordsChords v2Chords v3Chords v4Chords v5Chords v6TabsTabs v2Tabs v3UkuleleUkulele v2
Tuning: standard with CAPO on 3rd fret

     

    D  Cadd9 G/B   Gm6   Bm7  Em7   G
   -2-  -3-  -3--  -0--  -2-  -0-  -3-
   -3-  -3-  -3--  -3--  -3-  -3-  -3-
   -2-  -0-  -0--  -0--  -2-  -0-  -0-
   -0-  -2-  -0--  -2--  -4-  -2-  -0-
   ---  -3-  -2--  -1--  -2-  -2-  -2-
   ---  ---  ----  ----  ---  -0-  -3-

(INTRO)
   E
e|---2-----2p3-----2p0----------------|
B|------------------------5p3---------|
G|------------------------------------|(4)
D|------0-------0------0-------0------|
A|------------------------------------|
E|------------------------------------|


(VERSE)
   E
e|---2-----2p3-----2p0----------------|
B|------------------------5p3---------|
G|------------------------------------|(8x)
D|------0-------0------0-------0------|
A|------------------------------------|
E|------------------------------------|
     I am unwritten  can't  read my mind I'm undefined
     I'm just beginning the pen's in my hand ending unplanned

    D                         Cadd9                        G/B
e|--2------3p2---2p0---0-------2----3p2------2p0------0-----2-------------|
B|--3------3-----3-----3-------3----3--------3--------3-----3-------------|
G|-----2-------------------------0-----------------------------0----------|
D|--0---------------------------------------------------------------------|
A|-----------------------------3----------------------------2-------------|
E|------------------------------------------------------------------------|
   staring at the blank page before you  open up the  dirty window

                          Gm6
e|--3p2---------2p0----0---0------0---------------------0-------------------|
B|--3-----------3------3---3------3---------------------3-------------------|
G|-----------------------------0----------0--------0------------------------|
D|--------------------------------------------2-----------------------------|
A|-------------------------1------------------------------------------------|
E|--------------------------------------------------------------------------|
        let the sun illuminate the words that you could not find

    D                            Cadd9                             G/B
e|--2------3p2---2p0-------0-------2----3p2------2p0--------0-------2----|
B|--3------3-----3---------3-------3----3--------3----------3-------3----|
G|-----2------------------------------0--------------------------------0-|
D|--0--------------------------------------------------------------------|
A|---------------------------------3--------------------------------2----|
E|-----------------------------------------------------------------------|
  reaching    for something in the distance so close you can almost taste it


e|-----3p2----2p0--------0------|
B|-----3------3----------3------|
G|------------------------------|
D|------------------------------|
A|------------------------------|
E|------------------------------|
            release your inhibitions

CHORUS:

                      Bm7
Feel the rain on your skin
       Em7              G
no one else can feel it for you
      D             Bm7
only you can let it in
       Em7         G
no one else no one else
               D            Bm7
can speak the words on your lips
           Em7              G
drench yourself in words unspoken
           D                  Bm7
live your life with arms wide open
      Em7
today is where your book begins
                      D
the rest is still unwritten


intro..

D
I break tradition sometimes my tries

are outside the lines
D
we've been conditioned to not make mistakes

but I can't live that way

  D                           Cadd9
staring at the blank page before you
                   G/B
open up the  dirty window
                  Gm6
let the sun illuminate the words that you could not find
D                              Cadd9
reaching  for something in the distance
                          G/B
so close you can almost  taste it    release your inhibitions

(Chorus)...

    D                          G
e|--2----3p2-----2p0-----------2---3p2---2p0-------------|
B|---------------------5p3----------------------5p3------|
G|-------------------------------0-----0-----0-------0---| (2x)
D|-----0-------0-----0-----0-----------------------------|
A|-------------------------------------------------------|
E|-------------------------------------------------------|

  D                          G
Staring at the blank page before you
                    D
open up the dirty window
                  G
let the sun illuminate the words that you could not find
 D                             G
reaching for something in the distance
                          D
so close you can almost taste it
                 G
release your inhibitions


chorus, Bm7 Em7  G  D.....





Comments


Popular Natasha Bedingfield tabs & chords
Pocketful Of Sunshine 5 Chords
Silent Movie Chords
Try 1 Chords
Wild Horses 1 Chords
Unwritten 3 Tabs
Unwritten Intro Tabs
Cant Fall Down Ukulele
How Do You Do Ukulele
Little Too Much Ukulele
Touch Intro Ukulele


Song lyrics



↑ Back to top | Tablatures and chords are parodies/interpretations of the original songs. You may use it for private study, scholarship, research or language learning purposes only
© 2014 AZChords.com Contact us | Privacy policy | DMCA | Add/correct tabs | Request tabs | Top 50 tabs