>
 >
Soulmate 1

Soulmate 1 Guitar Tabs

Natasha Bedingfield - Soulmate 1 chords, tabs, tablatures, lyrics

Guitar lessons | Add/correct | Request | Top 50 tabs Artists:  A B C D E F G H I J K L M N O P Q R S T U V W X Y Z 0-9

Soulmate 1 Guitar Tabs – Natasha Bedingfield

CD, Sheet music, Poster

Do you like Soulmate 1? Share with your friends now
ChordsChords v2Chords v3TabsTabs v2Tabs v3Ukulele
-------------------------------------------------------------------------------
                             Soulmate - Natasha Bedingfield
----------------------------------------------------------------------------

Tuning: Standard

************************************

| /   slide up
| \   slide down
| h   hammer-on
| p   pull-off
| ~   vibrato
| +   harmonic
| x   Mute note
| b   Bend
| pb  Pre-bend
| br  Bend release
| pbr Pre-bend release
| brb Bend release bend

************************************


I think this tab is quite right, but if you find any kind of errors sen me a message and 
try fix it : )

Please Rate

Enjoy!

I think this tab Is quite right, but if you find any errors please send me a meassage 
I`ll try fix it ☺

Please rate

Enjoy!


Intro:

e|------------0--------------------0-----------|
B|---------3------3-------------3------3-------|
G|------2-------------2------2-------------2---|
D|---0--------------------0--------------------|
A|---------------------------------------------|
E|---------------------------------------------|

e|---------------------------------------------|
B|------------3--------------------------------|
G|---------2------2----------------------------|
D|------0-------------0------------------------|
A|---1--------------------1--------------------|
E|---------------------------------------------|

e|------------0--------------------0-----------|
B|---------3------3-------------3------3-------|
G|------2-------------2------2-------------2---|
D|---0--------------------0--------------------|
A|---------------------------------------------|
E|---------------------------------------------|

e|---------------------------------------------|
B|------------3--------------------------------|
G|---------2------2----------------------------|
D|------0-------------0------------------------|
A|---1--------------------1--------------------|
E|---------------------------------------------|



1. verse:

e|------------0--------------------0-----------|
B|---------3------3-------------3------3-------|
G|------2-------------2------2-------------2---|
D|---0--------------------0--------------------|
A|---------------------------------------------|
E|---------------------------------------------|
     Incompatible
e|---------------------------------------------|
B|------------3--------------------------------|
G|---------2------2----------------------------|
D|------0-------------0------------------------|
A|---1--------------------1-------------(1-0)--|
E|---------------------------------------------|
      It don`t matter though
e|------------0--------------------0-----------|
B|---------3------3-------------3------3-------|
G|------2-------------2------2-------------2---|
D|---0--------------------0--------------------|
A|---------------------------------------------|
E|---------------------------------------------|
     Cause someone`s bound to hear my 
e|---------------------------------------------|
B|------------3--------------------------------|
G|---------2------2----------------------------|
D|------0-------------0------------------------|
A|---1--------------------1-------------(1-0)--|
E|---------------------------------------------|
        Cry
e|---------------------------------------------|
B|------------3--------------------3-----------|
G|---------3------3-------------3------3-------|
D|------5-------------5------5--------------5--|
A|---------------------------------------------|
E|---3--------------------3--------------------|

     Speak out if you do
e|------------------------5--------------------|
B|------------5-----------5--------------------|
G|---------5--------------5--------------------|
D|------7-----------------7--------------------|
A|------------------------7--------------------|
E|---5--------------------5--------------------|
      You`re not easy to find

Break between 1. and 2. verse:

e|------------0--------------------0-----------|
B|---------3------3-------------3------3-------|
G|------2-------------2------2-------------2---|
D|---0--------------------0--------------------|
A|---------------------------------------------|
E|---------------------------------------------|

e|---------------------------------------------|
B|------------3--------------------------------|
G|---------2------2----------------------------|
D|------0-------------0------------------------|
A|---1--------------------1--------------------|
E|---------------------------------------------|





2. verse:

e|------------0--------------------0-----------|
B|---------3------3-------------3------3-------|
G|------2-------------2------2-------------2---|
D|---0--------------------0--------------------|
A|---------------------------------------------|
E|---------------------------------------------|
     Is it possible
e|---------------------------------------------|
B|------------3--------------------3-----------|
G|---------2------2-------------2------2-------|
D|------0-------------0------0-----------------|
A|---1--------------------1--------------(1-0)-|
E|---------------------------------------------|
     Mr. Loveable
e|------------0--------------------0-----------|
B|---------3------3-------------3------3-------|
G|------2-------------2------2-------------2---|
D|---0--------------------0--------------------|
A|---------------------------------------------|
E|---------------------------------------------|
     Is already in my
e|---------------------------------------------|
B|------------3--------------------3-----------|
G|---------2------2-------------2------2-------|
D|------0-------------0------0-----------------|
A|---1--------------------1--------------(1-0)-|
E|---------------------------------------------|
     life
e|---------------------------------------------|
B|------------3--------------------3-----------|
G|---------3------3-------------3------3-------|
D|------5-------------5------5--------------5--|
A|---------------------------------------------|
E|---3--------------------3--------------------|

     Right in front of me


e|------------------------5--------------------|
B|------------5-----------5--------------------|
G|---------5--------------5--------------------|
D|------7-----------------7--------------------|
A|------------------------7--------------------|
E|---5--------------------5--------------------|
Or maybe you`re in disguise


Chorus:

Dm             Gm              C
Who doesn't long for someone to hold
                  Bb
Who knows how to love you without being told
Dm        Gm                    C
Somebody tell me why I'm on my own
              Bb
If there's a soulmate for everyone


Break between chorus and 3. verse:

e|------------0--------------------0-----------|
B|---------3------3-------------3------3-------|
G|------2-------------2------2-------------2---|
D|---0--------------------0--------------------|
A|---------------------------------------------|
E|---------------------------------------------|

e|---------------------------------------------|
B|------------3--------------------------3-----|
G|---------2------2--------------------2---2---|
D|------0-------------0------------------------|
A|---1--------------------1--------------------|
E|---------------------------------------------|

e|------------0--------------------0-----------|
B|---------3------3-------------3------3-------|
G|------2-------------2------2-------------2---|
D|---0--------------------0--------------------|
A|---------------------------------------------|
E|---------------------------------------------|

e|-----------3---p0----------------------------|
B|--------------------2------------------------|
G|---------2--------------2--------------------|
D|------0--------------------------------------|
A|---1-----------------------------------------|
E|---------------------------------------------|


3. verse:

e|------------0--------------------0-----------|
B|---------3------3-------------3------3-------|
G|------2-------------2------2-------------2---|
D|---0--------------------0--------------------|
A|---------------------------------------------|
E|---------------------------------------------|
     Here we are again
e|------------0--------------------------------|
B|----------------2----------------------------|
G|---------2----------2------------------------|
D|------0--------------------------------------|
A|---1--------------------1-------(0)----------|
E|---------------------------------------------|
     Circes never end


e|------------0--------------------0-----------|
B|---------3------3-------------3------3-------|
G|------2-------------2------2-------------2---|
D|---0--------------------0--------------------|
A|---------------------------------------------|
E|---------------------------------------------|
    How do I find the perfect
e|------------0--------------------------------|
B|----------------2----------------------------|
G|---------2----------2------------------------|
D|------0--------------------------------------|
A|---1--------------------1-------(0)----------|
E|---------------------------------------------|

    fit
e|---------------------------------------------|
B|------------3--------------------3-----------|
G|---------3------3-------------3------3-------|
D|------5-------------5------5--------------5--|
A|---------------------------------------------|
E|---3--------------------3--------------------|

   There´s enough for evereyone


e|------------------------5--------------------|
B|------------5-----------5--------------------|
G|---------5--------------5--------------------|
D|------7-----------------7--------------------|
A|------------------------7--------------------|
E|---5--------------------5--------------------|

 But I`m still waiting in line

Chorus:

Dm             Gm              C
Who doesn't long for someone to hold
                  Bb
Who knows how to love you without being told
Dm        Gm                    C
Somebody tell me why I'm on my own
              Bb
If there's a soulmate for everyone

Dm    Gm                      Dm             Gm
          If there's a soulmate for everyone


Bridge:

e|---3--------5------------3--------5-----------|
B|------3---------3-----------3---------3-------|
G|---------2---------2-----------2---------2----|
D|----------------------0---------------------0-|
A|----------------------------------------------|
E|----------------------------------------------|
  Most realationships seem so transitory

e|---3--------5------------|
B|------3---------3--------|
G|---------3---------3-----|
D|----------------------0--|
A|-------------------------|
E|-------------------------|

   They`re all good but not the



 Bb    Bb    Bb    Bb    Bb    Bb    Bb    Bb
e|----------------------------------------------|
B|--3-----3-----3-----3-----3-----3-----3-----3-|
G|--3-----3-----3-----3-----3-----3-----3-----3-|
D|--3-----3-----3-----3-----3-----3-----3-----3-|
A|--1-----1-----1-----1-----1-----1-----1-----1-|
E|----------------------------------------------|

 Permanent one

Chorus:

Dm             Gm              C
Who doesn't long for someone to hold
                  Bb
Who knows how to love you without being told
Dm        Gm                    C
Somebody tell me why I'm on my own
              Bb
If there's a soulmate for everyone

repeat chorus


e|------------0--------------------0-----------|
B|----------------3--------------------3-------|
G|---------2----------2---------2----------2---|
D|---0--------------------0--------------------|
A|---------------------------------------------|
E|---------------------------------------------|

e|------------0--------------------------------|
B|----------------3----------------------------|
G|---------2----------2------------------------|
D|---------------------------------------------|
A|---1--------------------1--------------------|
E|---------------------------------------------|

e|------------0--------------------0-----------|
B|----------------3--------------------3-------|
G|---------2----------2---------2----------2---|
D|---0--------------------0--------------------|
A|---------------------------------------------|
E|---------------------------------------------|

e|------------0--------------------------------|
B|----------------3----------------------------|
G|---------2----------2------------------------|
D|---------------------------------------------|
A|---1--------------------1--------------------|
E|---------------------------------------------|

     Dm
e|---1-----------------------------------------|
B|---3-----------------------------------------|
G|---2-----------------------------------------|
D|---------------------------------------------|
A|---------------------------------------------|
E|---------------------------------------------|





Comments


Popular Natasha Bedingfield tabs & chords
Angel Chords
I Wanna Have Your Babies Chords
Pocketful Of Sunshine 4 Chords
Unwritten 6 Chords
Weightless 3 Chords
Wild Horses Chords
Soulmate Tabs
Cant Fall Down Ukulele
Sojourn Ukulele
Unwritten 2 Ukulele


Song lyrics



↑ Back to top | Tablatures and chords are parodies/interpretations of the original songs. You may use it for private study, scholarship, research or language learning purposes only
© 2014 AZChords.com Contact us | Privacy policy | DMCA | Add/correct tabs | Request tabs | Top 50 tabs