>
 >
Soulmate

Soulmate Guitar Tabs

Natasha Bedingfield - Soulmate chords, tabs, tablatures, lyrics

Guitar lessons | Add/correct | Request | Top 50 tabs Artists:  A B C D E F G H I J K L M N O P Q R S T U V W X Y Z 0-9

Soulmate Guitar Tabs – Natasha Bedingfield

CD, Sheet music, Poster

Do you like Soulmate? Share with your friends now
ChordsChords v2Chords v3TabsTabs v2Tabs v3Ukulele
Natasha Bedingfield - Soulmate


Tuning EADGBe (Standard)

CAPO on 1st fret

Chords EADGBe
------ ------
Bb     x13331
Gm     355333
Dm     xx0231
C      x3201x


Intro:

e|------------0--------------------0-----------|
B|---------3------3-------------3------3-------|
G|------2-------------2------2-------------2---|
D|---0--------------------0--------------------|
A|---------------------------------------------|
E|---------------------------------------------|

e|---------------------------------------------|
B|------------3--------------------------------|
G|---------2------2----------------------------|
D|------0-------------0------------------------|
A|---1--------------------1--------------------|
E|---------------------------------------------|
Play above 2 parts 2x for the intro


1. verse:

e|------------0--------------------0-----------|
B|---------3------3-------------3------3-------|
G|------2-------------2------2-------------2---|
D|---0--------------------0--------------------|
A|---------------------------------------------|
E|---------------------------------------------|

e|---------------------------------------------|
B|------------3--------------------------------|
G|---------2------2----------------------------|
D|------0-------------0------------------------|
A|---1--------------------1-------------(1-0)--|
E|---------------------------------------------|
Play above 2 parts 2x for the 1. verse

e|---------------------------------------------|
B|------------3--------------------3-----------|
G|---------3------3-------------3------3-------|
D|------5-------------5------5--------------5--|
A|---------------------------------------------|
E|---3--------------------3--------------------|

e|------------------------5--------------------|
B|------------5-----------5--------------------|
G|---------5--------------5--------------------|
D|------7-----------------7--------------------|
A|------------------------7--------------------|
E|---5--------------------5--------------------|


Break between 1. and 2. verse:

e|------------0--------------------0-----------|
B|---------3------3-------------3------3-------|
G|------2-------------2------2-------------2---|
D|---0--------------------0--------------------|
A|---------------------------------------------|
E|---------------------------------------------|

e|---------------------------------------------|
B|------------3--------------------------------|
G|---------2------2----------------------------|
D|------0-------------0------------------------|
A|---1--------------------1--------------------|
E|---------------------------------------------|


2. verse:

e|------------0--------------------0-----------|
B|---------3------3-------------3------3-------|
G|------2-------------2------2-------------2---|
D|---0--------------------0--------------------|
A|---------------------------------------------|
E|---------------------------------------------|

e|---------------------------------------------|
B|------------3--------------------3-----------|
G|---------2------2-------------2------2-------|
D|------0-------------0------0-----------------|
A|---1--------------------1--------------(1-0)-|
E|---------------------------------------------|
Play above 2 parts 2x for the 2. verse

e|---------------------------------------------|
B|------------3--------------------3-----------|
G|---------3------3-------------3------3-------|
D|------5-------------5------5--------------5--|
A|---------------------------------------------|
E|---3--------------------3--------------------|

e|------------------------5--------------------|
B|------------5-----------5--------------------|
G|---------5--------------5--------------------|
D|------7-----------------7--------------------|
A|------------------------7--------------------|
E|---5--------------------5--------------------|


Chorus:

Dm             Gm              C
Who doesn't long for someone to hold
                  Bb
Who knows how to love you without being told
Dm        Gm                    C
Somebody tell me why I'm on my own
              Bb
If there's a soulmate for everyone


Break between chorus and 3. verse:

e|------------0--------------------0-----------|
B|---------3------3-------------3------3-------|
G|------2-------------2------2-------------2---|
D|---0--------------------0--------------------|
A|---------------------------------------------|
E|---------------------------------------------|

e|---------------------------------------------|
B|------------3--------------------------3-----|
G|---------2------2--------------------2---2---|
D|------0-------------0------------------------|
A|---1--------------------1--------------------|
E|---------------------------------------------|

e|------------0--------------------0-----------|
B|---------3------3-------------3------3-------|
G|------2-------------2------2-------------2---|
D|---0--------------------0--------------------|
A|---------------------------------------------|
E|---------------------------------------------|

e|-----------3---p0----------------------------|
B|--------------------2------------------------|
G|---------2--------------2--------------------|
D|------0--------------------------------------|
A|---1-----------------------------------------|
E|---------------------------------------------|


3. verse:

e|------------0--------------------0-----------|   
B|---------3------3-------------3------3-------| 
G|------2-------------2------2-------------2---|  
D|---0--------------------0--------------------|  
A|---------------------------------------------|  
E|---------------------------------------------| 

e|------------0--------------------------------|
B|----------------2----------------------------|
G|---------2----------2------------------------|
D|------0--------------------------------------|
A|---1--------------------1-------(0)----------|
E|---------------------------------------------|
Play above 2 parts 2x for the 3. verse
                                                       
e|---------------------------------------------|      
B|------------3--------------------3-----------|      
G|---------3------3-------------3------3-------|      
D|------5-------------5------5--------------5--|      
A|---------------------------------------------|      
E|---3--------------------3--------------------|      
                                                       
e|------------------------5--------------------|      
B|------------5-----------5--------------------|      
G|---------5--------------5--------------------|      
D|------7-----------------7--------------------|      
A|------------------------7--------------------|      
E|---5--------------------5--------------------|


Chorus:

Dm             Gm              C
Who doesn't long for someone to hold
                  Bb
Who knows how to love you without being told
Dm        Gm                    C
Somebody tell me why I'm on my own
              Bb
If there's a soulmate for everyone

Dm    Gm                      Dm             Gm
          If there's a soulmate for everyone


Bridge:

e|---3--------5------------3--------5-----------|
B|------3---------3-----------3---------3-------|
G|---------2---------2-----------2---------2----|
D|----------------------0---------------------0-|
A|----------------------------------------------|
E|----------------------------------------------|

e|---3--------5------------3--------5-----------|
B|------3---------3-----------3---------3-------|
G|---------3---------3-----------3---------3----|
D|----------------------0---------------------0-|
A|----------------------------------------------|
E|----------------------------------------------|
Play above 2 parts one and a half times for the bridge


    Bb    Bb    Bb    Bb    Bb    Bb    Bb    Bb
e|----------------------------------------------|
B|--3-----3-----3-----3-----3-----3-----3-----3-|
G|--3-----3-----3-----3-----3-----3-----3-----3-|
D|--3-----3-----3-----3-----3-----3-----3-----3-|
A|--1-----1-----1-----1-----1-----1-----1-----1-|
E|----------------------------------------------|


Chorus:

Dm             Gm              C                
Who doesn't long for someone to hold
                  Bb
Who knows how to love you without being told
Dm        Gm                    C
Somebody tell me why I'm on my own
              Bb
If there's a soulmate for everyone

repeat chorus 1x


e|------------0--------------------0-----------|
B|----------------3--------------------3-------|
G|---------2----------2---------2----------2---|
D|---0--------------------0--------------------|
A|---------------------------------------------|
E|---------------------------------------------|

e|------------0--------------------------------|
B|----------------3----------------------------|
G|---------2----------2------------------------|
D|---------------------------------------------|
A|---1--------------------1--------------------|
E|---------------------------------------------|
Play above parts 2x

     Dm
e|---1-----------------------------------------|
B|---3-----------------------------------------|
G|---2-----------------------------------------|
D|---------------------------------------------|
A|---------------------------------------------|
E|---------------------------------------------|

Quite simple but accurate tablature, listen to the song for correct timing

have fun





Comments


Popular Natasha Bedingfield tabs & chords
I Wanna Have Your Babies Chords
Pocketful Of Sunshine 2 Chords
Pocketful Of Sunshine 5 Chords
Strip Me Chords
Touch Intro Chords
Wild Horses Chords
Wild Horses 1 Chords
Freckles Ukulele
How Do You Do Ukulele
Wild Horses Ukulele


Song lyrics



↑ Back to top | Tablatures and chords are parodies/interpretations of the original songs. You may use it for private study, scholarship, research or language learning purposes only
© 2014 AZChords.com Contact us | Privacy policy | DMCA | Add/correct tabs | Request tabs | Top 50 tabs