>
 >
Tell Yourself

Tell Yourself Guitar Tabs

Natalie Merchant - Tell Yourself chords, tabs, tablatures, lyrics

Guitar lessons | Add/correct | Request | Top 50 tabs Artists:  A B C D E F G H I J K L M N O P Q R S T U V W X Y Z 0-9

Tell Yourself Guitar Tabs – Natalie Merchant

CD, Sheet music, Poster

Do you like Tell Yourself? Share with your friends now
Tabs
TELL YOURSELF                             by NATALIE MERCHANT

capo 1

CHORDS FOR INTRO/CHORUS
e||---0---0---0---2---|
B||---1---0---1---3---|
G||---0---0---2---2---|
D||---2---2---2---0---|
A||3--3---2---0---0---|
E||-------0-----------|
      C   Em  Am  D

CHORDS FOR VERSE 1
e||--0----------------------0-------0------------0-------0--|
B||--1--0---------0---------1-----1-1--0----3----1-------1--|
G||--2--0---0-----0---0-----2---2---2--0--2---2--2-------0--|
D||--2--0-4---2-0-0-4---2-0-2-2-----2--0--0---0--2-------2--|
A||--0--2---------2---------0-------0--2--0---0--0-0-2-3-3--|
E||-----3---------3--------------------3--2---2-------------|
     Am G         G         Am      Am G  D   G  Am      C

CHORDS FOR VERSE 2
e||--0----------------------0-0-----0------------0-------0--|
B||--1--0---------0---------1---1---1--0----3----1-------1--|
G||--2--0---0-----0---0-----2-----2-2--0--2---2--2-------0--|
D||--2--0-4---2-0-0-4---2-0-2-------2--0--0---0--2-------2--|
A||--0--2---------2---------0-------0--2--0---0--0-0-2-3-3--|
E||-----3---------3--------------------3--2---2-------------|
     Am G         G         Am      Am G  D   G  Am      C

CHORDS FOR BRIDGE 1
e||--0--2--0----------2-----2--0---------2-2---0-----2--|
B||--0--3--1--0---3-----3---3--0---------3---3-1--0--3--|
G||--0--2--0--0-----2-----2-2--0-----0-4-2-----0--0--2--|
D||--2--0--2--0-0-----------0--2-2-4-----0-----2--0--0--|
A||--2--0--3--2-------------0--2---------0-----3--2--0--|
E||--0--------3----------------0------------------3-----|
     Em D  C  G             D  Em        D     C  G  D

CHORDS FOR BRIDGE 2                          BRIDGE 3
e||--1--0-------0--3--1--0-----0---0--------0|----------0---0-----0-----0------|
B||--3--1-------1--3--3--1-0-1-----1--0-----1|----1-----0-----0---1---1---1----|
G||--2--2-------0--0--2--2-------2-0--0--2--0|--0---0---0-------0-2-2-------2--|
D||--0--2-------2--0--0--2---------2--0--3--2|2-------2-2-2-------2------------|
A||--0--0-0-2-3-3--2--0--0---------3--2--3--3|----------2---------0------------|
E||----------------3------------------3--1---|----------0----------------------|
     Dm Am      C  G  Dm Am        C  G  F  C           Em        Am

                                  OUTRO
e||--2-----2------|               e||----0-----0----0----2-------2-3-|
B||--3---3---3----|               B||---1-----0----1----3------------|
G||--2-2-------2--|               G||--0-----0----2----2-------------|
D||--0------------|               D||-2-----2----2----0--------0-----|
A||--0------------|               A||3-----2----0----0-------2-------|
E||---------------|               E||-----0----------------3---------|
     D





Comments


Popular Natalie Merchant tabs & chords
Bury Me Under The Weeping Willow Chords
Ophelia Chords
Saint Judas Chords
Frozen Charlotte Ukulele
Gulf Of Araby Ukulele
I May Know The Word Ukulele
Letter Ukulele
Maggie And Millie And Molly And May Ukulele
Saint Judas Ukulele
Spring And Fall To A Young Child Ukulele


Song lyrics



↑ Back to top | Tablatures and chords are parodies/interpretations of the original songs. You may use it for private study, scholarship, research or language learning purposes only
© 2014 AZChords.com Contact us | Privacy policy | DMCA | Add/correct tabs | Request tabs | Top 50 tabs