» » »

Wrong Impression Tabs (ver.2)

Artists:  A B C D E F G H I J K L M N O P Q R S T U V W X Y Z # 

Wrong Impression Tabs (ver.2)

Natalie Imbruglia
Rating:
0/5 (0 votes)

Hard to play? Try these video lessons and learn fast.
                Capo 2nd fret

Intro:

Slide:e 4-9
      B 5-10

You can play the chords while playing the riff:

e-----2--0-0--2-0--|
B-2---------2------|
G------------------|
D------------------|
A------------------|
E------------------|
  1 - 2 - 3 - 4 ---|

Chords:
  1     2       3   4   5
 Em7  Em7sus6   B  BM7 F#7
e-2/0---2/0-----0---0---0---|
B-2-----2-------2---2---3---|
G-2-----2-------2---1---1---|
D-0-----0-------2---2---2---|
A-0-----2-------0---0---2---|
E-x-----x-------x---x---0---|

The bridge: transpose 2 fret higher
By fxt
            
Hard to play? Try these video lessons and learn fast. | Correct




comments powered by Disqus
↑ Back to top | Tablatures and chords are parodies/interpretations of the original songs. You may use it for private study, scholarship, research or language learning purposes only