» » »

Natalie Imbruglia, That Day Tabs (ver.1)

Artists:  A B C D E F G H I J K L M N O P Q R S T U V W X Y Z # 

That Day Tabs (ver.1)

Natalie Imbruglia Tabs
 Rating:
4/5 (10 votes)
That Day lessons Tabs too difficult? Try these video lessons and learn fast
1
                #research. Remember to view this file in Courier, or some other monospaced    #
#font.                                                                        #

"That day" by Natalie Imbruglia

The radio/video version has been cut in some parts. This is the full version;
I've marked cut pieces with [CUT].

Intro:

  Bm      Em7    D/F#   G
e-2---2-----------------3-3---3-3-
B-3---3-----3------3----0-0---0-0-
G-4---4----0------2-----0-0---0-0-
D-4---4---2------4------0-0---0-0-
A-2---2-----------------2-2---2-2-
E-----------------------3-3---3-3-
                        two fast double strums, as heard

  Bm      Em7    D/F#   Em
e-2---2-----------------0-0---0-0-
B-3---3-----3------3----0-0---0-0-
G-4---4----0------2-----0-0---0-0-
D-4---4---2------4------2-2---2-2-
A-2---2-----------------2-2---2-2-
E-----------------------0-0---0-0-

  D       Em7     G       Bm
e-3---2-------------------------
B---------3---2---2---3---0---3-
G-------------------------------
D-------------------------------
A-------------------------------
E-------------------------------
 [CUT] repeat twice

Verse:

| D | A | C G | D G | (repeat twice)
(with electric guitar pick the high E and B strings on each chord)

Chorus:

| Bm Em7 | D/F# G | Bm Em7 | D/F# Em | (with intro riff)
| D A | G Bm | D A | G Bm | (2/4) Bm |

Repeat verse and chorus.

Bridge:

   Guitar 1:
   Bm                        A
e|-------7-------------------------------------------------------------------
B|-----7---10-7---10-8-7-----------------------------------7-8-7-------------
G|---7-------------------9-7---------6-------------------9---------7---7-9-7-
D|-------------------------------7-9---9-----7-9---7-----------------7-------
A|-----------------------------9-----------9-----9---------------------------
E|---------------------------------------------------------------------------
 | Guitar 2:
e|-9------------2------------7-----------------------9-----------2-----------
B|---------------------------------------------------------------------------
G|---------------------------------------------------------------------------
D|---------------------------------------------------------------------------
A|---------------------------------------------------------------------------
E|---------------------------------------------------------------------------
    (guitar 2 is the strings played in background)

    Guitar 1:
    G                          Bm              A                         G
e|----------------------------------7-----------------------------------------
B|---------7--------------------7-10--7-----8-10-7---7-----7--------------7-7-
G|-----7-9---7--------------------------9--------------9-9---7-7--6-7-9-9-----
D|---9-----------7------------------------------------------------------------
A|-----------------9-10-9-9---------------------------------------------------
E|----------------------------------------------------------------------------
 | Guitar 2:
e|-7------------------------------------10----12------------------------10----
B|--------------------------3-2-------3---------------------------------------
G|----------------------------------------------------------------------------
D|----------------------------------------------------------------------------
A|----------------------------------------------------------------------------
E|----------------------------------------------------------------------------

     Guitar 1:
                        Em7
e|-7-----------------------------------------------------------------------
B|---10-8-7-------7---------7----------------------------------------------
G|------------7-9---7-7---7---7-----------7---------------------------7----
D|----------9-----------9-------9---7-----------7-------------7------------
A|------------------------------------9-9---9-----10-10-9-7-----10-10---10-
E|-------------------------------------------------------------------------
 | Guitar 2:
e|--------2-----------5-----------------------2-------------3--------------
B|-------------------------------------------------------------------------
G|-------------------------------------------------------------------------
D|-------------------------------------------------------------------------
A|-------------------------------------------------------------------------
E|-------------------------------------------------------------------------

Vocal bridge (that day, that day...):
Repeat intro (first two riffs).

Instrumental:
Repeat the third intro riff. [CUT]

Repeat chorus again.
Repeat the third intro riff. ("that day, that day...") [CUT]
Repeat bridge in background until fade.

Chords needed:

  Bm   Em7  D/F# G    Em   D    A    C    
e-2----0----2----3----0----2----0----0-----
B-3----3----3----0----0----3----2----1-----
G-4----0----2----0----0----2----2----0-----
D-4----2----0----0----2----0----2----2-----
A-2----2----0----2----2----x----0----3-----
E-x----0----2----3----0----x----x----x-----

For any comments, quesions or threats e-mail me at:
______________________________________
Added by Mikhailo
            
Submit corrections

comments powered by Disqus
↑ Back to top | Natalie Imbruglia Tabs for That Day. Lyrics for acoustic guitar and electric guitar. 1 Tablatures and chords are parodies/interpretations of the original songs. You may use it for private study, scholarship, research or language learning purposes only