>
 >
Satellite

Satellite Guitar Tabs

Natalie Imbruglia - Satellite chords, tabs, tablatures, lyrics

Guitar lessons | Add/correct | Request | Top 50 tabs Artists:  A B C D E F G H I J K L M N O P Q R S T U V W X Y Z 0-9

Satellite Guitar Tabs – Natalie Imbruglia

CD, Sheet music, Poster

Do you like Satellite? Share with your friends now
Tabs
#research. Remember to view this file in Courier, or some other monospaced    #
#font.                                                                        #

"Satellite" by Natalie Imbruglia
Added by Mikhailo

This took me really much work, so use it good.

h = hammer on
\ = slide down
/ = slide up
x = pull your left hand fingers off the strings
p = pull off

Intro:

                                     E     F#m  Emaj7   E     G#m F#m    G#m
e|-5h7-7---5\2-2-|-2/4-4---4\--0---|-0---0-2----0--0--0-0-|-2/4x--2-2-2/-----|
B|---------------|---------------2-|-0---0-2----0--0--0-0-|-2/4x--2-2-2/-----|
G|---------------|-----------------|-1---1-2----1--1--1-1-|-2/4x--2-2-2/---2-|
D|---------------|-----------------|-2---2-4----1--1--1-2-|-4/6x--4-4-4/--4--|
A|---------------|-----------------|-2---2-4----2--2--2-2-|-4/6x--4-4-4/-----|
E|---------------|-----------------|-0---0-2----0--0--0-0-|-2/4x--2-2-2/-----|

   E     F#m  Emaj7   E         F#m B  E
e|-0---0-2----0--0--0-0-|-4-4-4-2---7--4-|
B|-0---0-2----0--0--0-0-|-5-5-5-2---7--5-|
G|-1---1-2----1--1--1-1-|-4-4-4-2---8--4-|
D|-2---2-4----1--1--1-2-|-6-6-6-4---9--6-|
A|-2---2-4----2--2--2-2-|-7-7-7-4---9--7-|
E|-0---0-2----0--0--0-0-|-------2---7----|

Verse 1:
repeat intro twice (excluding first two bars).
If you want you can even play the chord sequence
| E F#m Emaj7 E |
for each bar.

Play always this leading to chorus (during the last bar):
  E/G#
e-------------7-
B---------7-9---
G-------9-------
D---6-9---------
A-7-------------
E---------------

Chorus:

   A         B          C#m       E
e|-0--0-0-0--2-2--2-2-|-4--4-4-4--0-0--0-0-|
B|-2--2-2-2--4-4--4-4-|-5--5-5-5--0-0--0-0-|
G|-2--2-2-2--4-4--4-4-|-6--6-6-6--1-1--1-1-|
D|-2--2-2-2--4-4--4-4-|-6--6-6-6--2-2--2-2-|
A|-0--0-0-0--2-2--2-2-|-4--4-4-4--2-2--2-2-|
E|--------------------|-----------0-0--0-0-|
 (repeat three times)

   A         B
e|-0--0-0-0--2x----|-------------|
B|-2--2-2-2--4x----|-------------|
G|-2--2-2-2--4x----|-------------|
D|-2--2-2-2--4x----|----------2--|
A|-0--0-0-0--2x----|------2-4----|
E|-----------------|-------------|
 (repeat three times)   

Repeat intro (bars 3 and 4, once).

Verse 2:

Part 1: repeat intro once (excluding first two bars).

Part 2:

   E      Emaj7  F#m    E       G#m F#m    G#m
e|-12-12--11-11--9--9---7-7-|-2/4x--2-2-2/-----|
B|-12-12--12-12--10-10--9-9-|-2/4x--2-2-2/-----|
G|-13-13--13-13--11-11--9-9-|-2/4x--2-2-2/---2-|
D|--------------------------|-4/6x--4-4-4/--4--|
A|--------------------------|-4/6x--4-4-4/-----|
E|--------------------------|-2/4x--2-2-2/-----|

   E     F#m  Emaj7   E         F#m B  E   
e|-0---0-2----0--0--0-0-|-4-4-4-2---7--4-|
B|-0---0-2----0--0--0-0-|-5-5-5-2---7--5-|
G|-1---1-2----1--1--1-1-|-4-4-4-2---8--4-|
D|-2---2-4----1--1--1-2-|-6-6-6-4---9--6-|
A|-2---2-4----2--2--2-2-|-7-7-7-4---9--7-|
E|-0---0-2----0--0--0-0-|-------2---7----|

Repeat chorus.

Bridge:

   Guitar 1:
           E     F#m  Emaj7   E         G#m F#m    G#m
e|-------|-0---0-2----0--0--0-0-----|-2/4x--2-2-2/-----|
B|-------|-0---0-2----0--0--0-0-----|-2/4x--2-2-2/-----|
G|-------|-1---1-2----1--1--1-1-----|-2/4x--2-2-2/---2-|
D|-------|-2---2-4----1--1--1-2-----|-4/6x--4-4-4/--4--|
A|-------|-2---2-4----2--2--2-2-----|-4/6x--4-4-4/-----|
E|-------|-0---0-2----0--0--0-0-----|-2/4x--2-2-2/-----|
 | Guitar 2:
e|-------|--------------------------|------------------|
B|-------|--------------------------|-------------0-0--|
G|-------|------------------------1-|----------------2-|
D|-----2-|---------------------2-4--|------------------|
A|-2-4---|--------------------------|------------------|
E|-------|--------------------------|------------------|
  (guitar 2 is heard on the left)

   Guitar 1:
     E     F#m  Emaj7   E         F#m B  E   
e|-0---0-2----0--0--0-0-|-4-4-4-2---7--4-|
B|-0---0-2----0--0--0-0-|-5-5-5-2---7--5-|
G|-1---1-2----1--1--1-1-|-4-4-4-2---8--4-|
D|-2---2-4----1--1--1-2-|-6-6-6-4---9--6-|
A|-2---2-4----2--2--2-2-|-7-7-7-4---9--7-|
E|-0---0-2----0--0--0-0-|-------2---7----|
 | Guitar 2:
e|-0--------------------|----------------|
B|-0--------------------|----------------|
G|-1--------------------|----------------|
D|-2----------------4-4-|-2--------------|
A|-2--------------------|-------4---4--2-|
E|-0--------------------|----------------|

  Guitar 1:
          E   F#m    Emaj7 E        G#m F#m    G#m   
e-----|-0---0-2----0--0--0-0--|-2/4x--2-2-2/------|
B-----|-0---0-2----0--0--0-0--|-2/4x--2-2-2/------|
G-----|-1---1-2----1--1--1-1--|-2/4x--2-2-2/--2---|
D-----|-2---2-4----1--1--1-2--|-4/6x--4-4-4/----4-|
A-----|-2---2-4----2--2--2-2--|-4/6x--4-4-4/------|
E-----|-0---0-2----0--0--0-0--|-2/4x--2-2-2/------|
  Guitar 2:
e-0-0-|-2h4p0-0---------------|-------0---2/4---0-|
B-----|----------5p2-2-2p0-0--|-0-----------------|
G-----|---------------------2-|-------------------|
D-----|-----------------------|-------------------|
A-----|-----------------------|-------------------|
E-----|-----------------------|-------------------|

  Guitar 1:
     E     F#m  Emaj7   E                    F#m B   E  
e|-0---0-2----0--0--0-0---------|-4--4--4--2---7---4----------|
B|-0---0-2----0--0--0-0---------|-5--5--5--2---7---5----------|
G|-1---1-2----1--1--1-1---------|-4--4--4--2---8---4----------|
D|-2---2-4----1--1--1-2---------|-6--6--6--4---9---6----------|
A|-2---2-4----2--2--2-2---------|-7--7--7--4---9---7----------|
E|-0---0-2----0--0--0-0---------|----------2---7--------------|
  Guitar 2:
e|-2/4-4/7-7/9-9/12-12-12-14-16-|-19-19-19-17--17--16-14-12-9-|
B|------------------------------|-----------------------------|
G|------------------------------|-----------------------------|
D|------------------------------|-----------------------------|
A|------------------------------|-----------------------------|
E|------------------------------|-----------------------------|

Repeat chorus.

Coda:

| E7 | E | E | E |
| E F#m Emaj7 E | F#m G#m F#m G#m |
| E F#m Emaj7 E | E F#m B E |





Comments


Popular Natalie Imbruglia tabs & chords
Come On Home Chords
Do You Love? 1 Chords
Glorious 1 Chords
Smoke Chords
Torn 3 Chords
Talk In Tongues Tabs
Everything Goes Ukulele
One More Addiction Ukulele
Scars Ukulele
Starting Over Ukulele


Song lyrics



↑ Back to top | Tablatures and chords are parodies/interpretations of the original songs. You may use it for private study, scholarship, research or language learning purposes only
© 2014 AZChords.com Contact us | Privacy policy | DMCA | Add/correct tabs | Request tabs | Top 50 tabs