» » »

Identify Tabs (ver.1)

Artists:  A B C D E F G H I J K L M N O P Q R S T U V W X Y Z # 

Identify Tabs (ver.1)

Natalie Imbruglia
Rating:
0/5 (0 votes)

Tabs too difficult? Try these video lessons and learn fast.
                this is mostly on the A string so its simple to play and for most beginners see im not a 
fan of natalie but her voice and this guitar solo blew me away so i hope its right cuz 
doin this by ear.
~=hold note
/=slide up


e----------------------------------------------------------------------|
b----------------------------------------------------------------------|
g----------------------------------------------------------------------|
D----------------------------------------------------------------------|
A--/14--10--12--9-10-9--5--7--4-5--/15--11--13--10-11-10--6--8--5-6----|
E----------------------------------------------------------------------|

|----------------------------------------------------------------------|
|----------------------------------------------------------------------|
|----------------------------------------------------------------------|
|--------------------------------/13--9--11--8-9-----------------------|
|--/13--9--11--8-9-8--4--6--3-4-------------------/12--8--10--7-8-7--3-|
|----------------------------------------------------------------------|

|-----------------------------------------------------------------------|
|-----------------------------------------------------------------------|
|-----------------------------------------------------------------------|
|-----------------------------------------------------------------------|
|-5--2-3--/14--10--12--9-10-9--5--7--4-5--/15--11--13--10-11~~~~~~~~~~~-|
|-----------------------------------------------------------------------|
            
Tabs too difficult? Try these video lessons and learn fast.


comments powered by Disqus
↑ Back to top | Tablatures and chords are parodies/interpretations of the original songs. You may use it for private study, scholarship, research or language learning purposes only