» » »

Goodbye Chords (ver.1)

Artists:  A B C D E F G H I J K L M N O P Q R S T U V W X Y Z # 

Goodbye Chords (ver.1)

Natalie Imbruglia
Rating:
3/5 (1 vote)

Hard to play? Try these video lessons and learn fast.
                #research. Remember to view this file in Courier, or some other monospaced    #
#font.                                                                        #

"Goodbye" by Natalie Imbruglia
Added By Mikhailo

Verse:

| G#m | B | C#m | B | (1st and 2nd time twice, 3rd time once)
| F# | Ebm | E | Abm | x2

Chorus:

| F# E | Ebm F# | E | E |
| B E6 | C#m | B C#m | E | (1st time once, 2nd time twice, 3rd time until fade)

Repeat all.

Bridge:

| E | G | D | F# |

~ = vibrato
p = pull off
h = hammer on

  B  E6   C#m                 B   C#m                E
e        -7~---7------------------11p9h11--9-9-9-9---12---11------
B        -------------9--7-------------------------------------12-
G        ---------8-8---------------------------------------------
D        ---------------------------------------------------------
A        ---------------------------------------------------------
E        ---------------------------------------------------------

Repeat verse and chorus.

Chords needed:
  Abm B   C#m F#  Ebm E   E6  G   D   
e-4---2---4---2---2---0---0---3---2----
B-4---4---5---2---4---0---2---0---3----
G-4---4---6---3---3---1---1---0---2----
D-6---4---6---4---1---2---2---0---0----
A-6---2---4---4---x---2---2---2---x----
E-4---x---x---2---x---0---0---3---x----

Tab made with Guitar Tabmaker.
            
Hard to play? Try these video lessons and learn fast. | Correct




comments powered by Disqus
↑ Back to top | Tablatures and chords are parodies/interpretations of the original songs. You may use it for private study, scholarship, research or language learning purposes only