» » »

Where Are You Tabs (ver.1)

Artists:  A B C D E F G H I J K L M N O P Q R S T U V W X Y Z # 

Where Are You Tabs (ver.1)

Natalie
Rating:
3/5 (3 votes)

Hard to play? Try these video lessons and learn fast.
                (Intro)

I was playing around with "The Reason" by Hoobastank and thought hey...this sounds like where are you...=p

this my first tab...
standard tuning


|---------------------------------------|----------------------------|
|--------------7------------------------|----------7-----------------|
|---------8h9------8---6~~~---6----8---4|---888h9------8----6~~~-----|
|---------------------------------------|----------------------------|
|---------------------------------------|----------------------------|
|---------------------------------------|----------------------------|

|-----------------------------------------------7s9s7----------------|
|------------------------------------------7-------------------------|
|---------6-----8-----4------6------8--------------------------------|
|--------------------------------------------------------------------|
|--------------------------------------------------------------------|
|--------------------------------------------------------------------|
            
Hard to play? Try these video lessons and learn fast. | Correct




comments powered by Disqus
↑ Back to top | Tablatures and chords are parodies/interpretations of the original songs. You may use it for private study, scholarship, research or language learning purposes only