» » »

Natalia Lafourcade, Mango Tabs (ver.1)

Artists:  A B C D E F G H I J K L M N O P Q R S T U V W X Y Z # 

Mango Tabs (ver.1)

Natalia Lafourcade Tabs
 Rating:
4/5 (4 votes)
Mango lessons Tabs too difficult? Try these video lessons and learn fast
                mango


Natalia Lafourcade


en vivo en hermosillo sonora
concierto exa 2003






intro
GT1
e:-5--x--5--5--5--5--5/6-6-|
B:-6--x--6--6--6--6--6/7-7-|
G:-5--x--5--5--5--5--5/6-6-|
D:-7--x--7--7--7--7--7/8-8-|
A:-5--x--5--5--5--5--5/6-6-|
E:-------------------------|

GT2
e:--------------------------------|
B:-10-x-10--10--10--10--10/11--11-|
G:-10-x-10--10--10--10--10/11--11-|
D:-10-x-10--10--10--10--10/11--11-|
A:-12-x-12--12--12--12--12--------|
E:--------------------------------|

GT1
e:-5--x--5--5--5--5--5--6-6-|
B:-6--x--6--6--6--6--6--7-7-|
G:-5--x--5--5--5--5--5--6-6-|
D:-7--x--7--7--7--7--7--8-8-|
A:-5--x--5--5--5--5--5--6-6-|
E:--------------------------|

GT2
e:----------------------------------|
B:-10-x-10--10--10--10--10---11--11-|
G:-10-x-10--10--10--10--10---11--11-|
D:-10-x-10--10--10--10--10---11--11-|
A:-12-x-12--12--12--12--12---13--13-|
E:----------------------------------|

verse
GT1
repeat
e:-5--x--5--5--5--5--5/6-6-|
B:-6--x--6--6--6--6--6/7-7-|
G:-5--x--5--5--5--5--5/6-6-|
D:-7--x--7--7--7--7--7/8-8-|
A:-5--x--5--5--5--5--5/6-6-|
E:-------------------------|

GT2
repeat
e:--------------------------------|
B:-10-x-10--10--10--10--10/11--11-|
G:-10-x-10--10--10--10--10/11--11-|
D:-10-x-10--10--10--10--10/11--11-|
A:-12-x-12--12--12--12--12-13--13-|
E:--------------------------------|

GT1
repeat
e:-5--x--5--5--5--5--5/6-6-|
B:-6--x--6--6--6--6--6/7-7-|
G:-5--x--5--5--5--5--5/6-6-|
D:-7--x--7--7--7--7--7/8-8-|
A:-5--x--5--5--5--5--5/6-6-|
E:-------------------------|
GT2
e:----------------------------------|
B:-10-x-10--10--10--10--10---11--11-|
G:-10-x-10--10--10--10--10---11--11-|
D:-10-x-10--10--10--10--10---11--11-|
A:-12-x-12--12--12--12--12----------|
E:----------------------------------|

GT1
e:-5--x--5--5--5--5--5--6-6-|
B:-6--x--6--6--6--6--6--7-7-|
G:-5--x--5--5--5--5--5--6-6-|
D:-7--x--7--7--7--7--7--8-8-|
A:-5--x--5--5--5--5--5--6-6-|
E:--------------------------|

GT2
e:----------------------------------|
B:-10-x-10--10--10--10--10---11--11-|
G:-10-x-10--10--10--10--10---11--11-|
D:-10-x-10--10--10--10--10---11--11-|
A:-12-x-12--12--12--12--12----------|
E:----------------------------------|

GT1
e:-3--3-3-3-3-3-3--5-5-5-5-5-5--5--5--5--5--5--5--5--6--6--|
B:-3--3-3-3-3-3-3--5-5-5-5-5-5--6--6--6--6--6--6--6--7--7--|
G:-3--3-3-3-3-3-3--6-6-6-6-6-6--5--5--5--5--5--5--5--6--6--|
D:-3--3-3-3-3-3-3--5-5-5-5-5-5--7--7--7--7--7--7--7--8--8--|
A:-5--5-5-5-5-5-5--7-7-7-7-7-7--5--5--5--5--5--5--5--6--6--|
E:-3--3-3-3-3-3-3--5-5-5-5-5-5-----------------------------|

wah
GT2
e:-3--3-3-3-3-3-3--5-5-5-5-5-5-----------------------------|
B:-3--3-3-3-3-3-3--5-5-5-5-5-5--10-10-10-10-10-10-10-11-11-|
G:-3--3-3-3-3-3-3--6-6-6-6-6-6--10-10-10-10-10-10-10-11-11-|
D:-3--3-3-3-3-3-3--5-5-5-5-5-5--10-10-10-10-10-10-10-11-11-|
A:-5--5-5-5-5-5-5--7-7-7-7-7-7--12-12-12-12-12-12-12-------|
E:-3--3-3-3-3-3-3--5-5-5-5-5-5-----------------------------|

GT1
e:-3--3-3-3-3-3-3--5--x--3--3-|
B:-3--3-3-3-3-3-3--5--x--3--3-|
G:-3--3-3-3-3-3-3--6--x--3--3-|
D:-3--3-3-3-3-3-3--5--x--3--3-|
A:-5--5-5-5-5-5-5--7--x--5--5-|
E:-3--3-3-3-3-3-3--5--x--3--3-|
GT2
e:-3--3-3-3-3-3-3--5--x--3--3-|
B:-3--3-3-3-3-3-3--5--x--3--3-|
G:-3--3-3-3-3-3-3--6--x--3--3-|
D:-3--3-3-3-3-3-3--5--x--3--3-|
A:-5--5-5-5-5-5-5--7--x--5--5-|
E:-3--3-3-3-3-3-3--5--x--3--3-|

GT1
e:-5--x--5--5--5--5--5--6-6-|
B:-6--x--6--6--6--6--6--7-7-|
G:-5--x--5--5--5--5--5--6-6-|
D:-7--x--7--7--7--7--7--8-8-|
A:-5--x--5--5--5--5--5--6-6-|
E:--------------------------|
GT2
e:----------------------------------|
B:-10-x-10--10--10--10--10---11--11-|
G:-10-x-10--10--10--10--10---11--11-|
D:-10-x-10--10--10--10--10---11--11-|
A:-12-x-12--12--12--12--12----------|
E:----------------------------------|

GT1
e:-3--3-3-3-3-3-3--5-5-5-5-5-5--5--5--5--5--5--5--5--6--6--|
B:-3--3-3-3-3-3-3--5-5-5-5-5-5--6--6--6--6--6--6--6--7--7--|
G:-3--3-3-3-3-3-3--6-6-6-6-6-6--5--5--5--5--5--5--5--6--6--|
D:-3--3-3-3-3-3-3--5-5-5-5-5-5--7--7--7--7--7--7--7--8--8--|
A:-5--5-5-5-5-5-5--7-7-7-7-7-7--5--5--5--5--5--5--5--6--6--|
E:-3--3-3-3-3-3-3--5-5-5-5-5-5-----------------------------|

wah
GT2
e:-3--3-3-3-3-3-3--5-5-5-5-5-5-----------------------------|
B:-3--3-3-3-3-3-3--5-5-5-5-5-5--10-10-10-10-10-10-10-11-11-|
G:-3--3-3-3-3-3-3--6-6-6-6-6-6--10-10-10-10-10-10-10-11-11-|
D:-3--3-3-3-3-3-3--5-5-5-5-5-5--10-10-10-10-10-10-10-11-11-|
A:-5--5-5-5-5-5-5--7-7-7-7-7-7--12-12-12-12-12-12-12-------|
E:-3--3-3-3-3-3-3--5-5-5-5-5-5-----------------------------|

GT1
e:-3--3-3-3-3-3-3--5--x--3--3-|
B:-3--3-3-3-3-3-3--5--x--3--3-|
G:-3--3-3-3-3-3-3--6--x--3--3-|
D:-3--3-3-3-3-3-3--5--x--3--3-|
A:-5--5-5-5-5-5-5--7--x--5--5-|
E:-3--3-3-3-3-3-3--5--x--3--3-|
GT2
e:-3--3-3-3-3-3-3--5--x--3--3-|
B:-3--3-3-3-3-3-3--5--x--3--3-|
G:-3--3-3-3-3-3-3--6--x--3--3-|
D:-3--3-3-3-3-3-3--5--x--3--3-|
A:-5--5-5-5-5-5-5--7--x--5--5-|
E:-3--3-3-3-3-3-3--5--x--3--3-|

GT1
repeat
e:-5--x--5--5--5--5--5/6-6-|
B:-6--x--6--6--6--6--6/7-7-|
G:-5--x--5--5--5--5--5/6-6-|
D:-7--x--7--7--7--7--7/8-8-|
A:-5--x--5--5--5--5--5/6-6-|
E:-------------------------|

GT2
repeat
e:----------------------------------|
B:-10-x-10--10--10--10--10---11--11-|
G:-10-x-10--10--10--10--10---11--11-|
D:-10-x-10--10--10--10--10---11--11-|
A:-12-x-12--12--12--12--12----------|
E:----------------------------------|
            
Submit corrections

comments powered by Disqus
↑ Back to top | Natalia Lafourcade Tabs for Mango. Lyrics for acoustic guitar and electric guitar. Tablatures and chords are parodies/interpretations of the original songs. You may use it for private study, scholarship, research or language learning purposes only