>
 >
Look Outside

Look Outside Bass Tabs

Natalia Lafourcade - Look Outside chords, tabs, tablatures, lyrics

Guitar lessons | Add/correct | Request | Top 50 tabs Artists:  A B C D E F G H I J K L M N O P Q R S T U V W X Y Z 0-9

Look Outside Bass Tabs – Natalia Lafourcade

CD, Sheet music, Poster

Do you like Look Outside? Share with your friends now
Bass Tabs
1:47
G|------------------------------------------------------------|
D|------------------------------------------------------------|
A|------------------------------------------------------------|
E|---0------0-------0------0------0-0---0---------------------|
 

G|------------------------------------------------------------|
D|------------------------------------------------------------|
A|------------------------------------------------------------|
E|---30---0-03-----0---------0-------0------------------------|
 
G|-------------------|
D|-------------------|
A|-------------------|
E|------3-3-1-1------|
 
G|------------------------------------------------------------|
D|------------------------------------------------------------|
A|------------------------------------------------------------|
E|---0------0-------0------0------0-0---0---------------------|
 

G|------------------------------------------------------------|
D|------------------------------------------------------------|
A|------------------------------------------------------------|
E|---30---0-03-----0---------0-------0------------------------|
 
Chorus
G|-----------------------------------------------------|
D|-----------------------------------------------------|
A|-----------------------------------------------------|
E|----------------012100000---------------560----------|



G|------------------------------------------------------------|
D|------------------------------------------------------------|
A|------------------------------------------------------------|
E|---0------0-------0------0------0-0---0---------------------|
 

G|------------------------------------------------------------|
D|------------------------------------------------------------|
A|------------------------------------------------------------|
E|---30---0-03-----0---------0-------0------------------------|



YONATHANGARFIAS





Comments


Popular Natalia Lafourcade tabs & chords
Primavera Bass Tabs
Mara Bonita Chords
Concierto Exa Hermosillo Sonora Mango Tabs
En El 2000 Tabs
Mango Tabs
Te Quiero Dar Tabs


Song lyrics



↑ Back to top | Tablatures and chords are parodies/interpretations of the original songs. You may use it for private study, scholarship, research or language learning purposes only
© 2014 AZChords.com Contact us | Privacy policy | DMCA | Add/correct tabs | Request tabs | Top 50 tabs