» » »

Nasum, Warfuck Tabs (ver.1)

Artists:  A B C D E F G H I J K L M N O P Q R S T U V W X Y Z # 

Warfuck Tabs (ver.1)

Nasum Tabs
Rating:
0/5 (0 votes)
Warfuck lessons Tabs too difficult? Try these video lessons and learn fast
                Band: Nasum
Copyright (c)  Grindwork Productions - 1994

Tab Written On - April 9th, 2007


Legend:
\  - slide down to
' - slight palm mute

Tuning: Drop D:
(D A D G B E)

E|------------------------------|
B|------------------------------|
G|------------------------------|   X 2
D|------------------------------|
A|-0-0--0-0-0--0--7\6--0--2/1-1-|
D|-0-0--0-0-0--0--7\6--0--2/1-1-|

E|--------------|
B|--------------|
G|--------------|
D|--------------|
A|-1-1-1-1-1-1--|
D|-1-1-1-1-1-1--|
   ' ' ' ' ' '
E|-------------------------------------|
B|-------------------------------------|
G|-------------------------------------|
D|-------------------------------------|
A|-------------------------------------|
D|-5-5-5-5-5-5-5-5--2-2-1-1-2-2-1-1----|

E|------------------------------------|
B|------------------------------------|
G|------------------------------------|
D|------------------------------------|
A|-------------5-5--------------------|
D|-5-5-5-5-5-5-----2-2-1-1-2-2-1-1----|

E|---------------------------------|
B|---------------------------------|
G|---------------------------------|
D|---------------------------------|
A|------------------1-1-1-1-1-1-0--|
D|-5-5-5-5-5-5-5-5--1-1-1-1-1-1-0--|
                    ' ' ' ' ' '

Finished...

Once again, another classic from a great EP.

Nasum = Kings Of Grind!

- Jordo.
            

comments powered by Disqus
↑ Back to top | Nasum Tabs for Warfuck. Lyrics for acoustic guitar and electric guitar. Tablatures and chords are parodies/interpretations of the original songs. You may use it for private study, scholarship, research or language learning purposes only