» » »

Relics Tabs (ver.1)

Artists:  A B C D E F G H I J K L M N O P Q R S T U V W X Y Z # 

Relics Tabs (ver.1)

Nasum
Rating:
5/5 (1 vote)

Tabs too difficult? Try these video lessons and learn fast.
                                                        play this song as fast as humanly
                                          posible
|--------------------------------|
|--------------------------------|
|--------------------------------|
|---------------5-5555556-666666-|
|021021021021020-----------------| x2

|-------------------------------|
|-------------------------------|
|-88-88-88-88-88----------------|
|-88-88-88-88-887-7777776-666666|
|-66-66-66-66-66----------------|
|-------------------------------| x2

|---------------|
|---------------|
|---------------|
|---------------|
|---------------|
|0-01010-0-01010|

Riff 2
|--|--------------------------------------------------------------|--|
|--|--------------------------------------------------------------|--|
|--|--------------------------------------------------------------|--|
|0-|01010-0-01010-0-01010---------0-01010-0-01010-0-01010---------|--|
|0-|01010-0-01010-0-01010-54444---0-01010-0-01010-0-01010-54444--6|5-|
|0-|01010-0-01010-0-01010------8880-01010-0-01010-0-01010------88-|--| x2

Riff 3
|---------------------------------------------------|--------|
|---(x2)--------------------------------------------|-(end 1)|
|---------------------------------------------------|--------|
|0-----------5-3-----------5-0-----------5-3--------|333333--|
|0-----------5-3-----------5-0-----------5-3--------|333333--|
|0-----------5-3-----------5-0-----------5-3--------|333333--|

|----------------|
|-(end 2)--------|
|----------------|
|11-1-111-1-111--|
|11-1-111-1-111--|
|11-1-111-1-111--|

|--------|
|--------|
|--------|
|0-------|
|0-------|
|0-------|

Riff 2
|--|--------------------------------------------------------------|--|
|--|--------------------------------------------------------------|--|
|--|--------------------------------------------------------------|--|
|0-|01010-0-01010-0-01010---------0-01010-0-01010-0-01010---------|--|
|0-|01010-0-01010-0-01010-54444---0-01010-0-01010-0-01010-54444--6|5-|
|0-|01010-0-01010-0-01010------8880-01010-0-01010-0-01010------88-|--| x2

Riff 3
|---------------------------------------------------|--------|
|---------------------------------------------------|-(end 1)|
|---------------------------------------------------|--------|
|0-----------5-3-----------5-0-----------5-3--------|333333--|
|0-----------5-3-----------5-0-----------5-3--------|333333--|
|0-----------5-3-----------5-0-----------5-3--------|333333--|

|----------------|
|-(end 2)--------|
|----------------|
|11-1-111-1-111--|
|11-1-111-1-111--|
|11-1-111-1-111--|

Riff 4
|-----------------------------------------------------------------|
|-----------------------------------------------------------------|
|-----------------------------------------------------------------|
|11111111111111-100000000000000000----------------0000000000000000|
|111111111111111--000000000000000011111111--------0000000000000000|
|11111111111111---000000000000000011111111111111110000000000000000| x2
 .................................................................

play Riff4 2 more times but without palm mute

Riff 3
|---------------------------------------------------|--------|
|---(x3)--------------------------------------------|-(end 1)|
|---------------------------------------------------|--------|
|0-----------5-3-----------5-0-----------5-3--------|333333--|
|0-----------5-3-----------5-0-----------5-3--------|333333--|
|0-----------5-3-----------5-0-----------5-3--------|333333--|

|----------------|
|-(end 2 and  3)-|
|----------------|
|11-1-111-1-111--|
|11-1-111-1-111--|
|11-1-111-1-111--|

if youre fingers arnt' bleading by the end of this song your doing
it wrong and dieseve to be shot in da head
            
Tabs too difficult? Try these video lessons and learn fast.


comments powered by Disqus
↑ Back to top | Tablatures and chords are parodies/interpretations of the original songs. You may use it for private study, scholarship, research or language learning purposes only