» » »

Nasum, Disdain And Contempt Tabs (ver.1)

Artists:  A B C D E F G H I J K L M N O P Q R S T U V W X Y Z # 

Disdain And Contempt Tabs (ver.1)

Nasum Tabs
 Rating:
4/5 (4 votes)
Disdain And Contempt lessons Tabs too difficult? Try these video lessons and learn fast
                Band: Nasum
Copyright (c) Relapse Records - 1997

Tab Written On - January 21st, 2007


Legend:
\  - slide down to

Tuning: Drop D
(D A D G B E)

E|----------------------------|
B|----------------------------|
G|------3------3-----3-----3--|   
D|------3------3-----3-----3--|
A|-5--6---5--6----5-6-5--6----|
D|-5--6---5--6----5-6-5--6----|


E|-------------------|
B|-------------------|
G|-------------------|   
D|---10-10-10--8\6---| X 8
A|---8--8--8---6\4---|
D|-------------------|

E|----------|
B|----------|
G|----------|   
D|----------|
A|-33333333-|
D|-33333333-|

E|---------------|
B|---------------|
G|-----3------3--|   
D|-----3------3--|
A|-5-6---5--6----|
D|-5-6---5--6----|

E|-------------------|
B|-------------------|
G|-------------------|   
D|---10-10-10--8\6---| X 8
A|---8--8--8---6\4---|
D|-------------------|

E|----------|
B|----------|
G|----------|   
D|----------|
A|-33333333-|
D|-33333333-|

E|---------------|
B|---------------|
G|-----3------3--|   
D|-----3------3--|  (hold last chord for a few seconds and fade out)
A|-5-6---5--6----|
D|-5-6---5--6----|

Finished...

Another great song off of Inhale/Exhale. =)

Nasum = The Kings Of Grind!

- Jordo.
            
Submit corrections

comments powered by Disqus
↑ Back to top | Nasum Tabs for Disdain And Contempt. Lyrics for acoustic guitar and electric guitar. Tablatures and chords are parodies/interpretations of the original songs. You may use it for private study, scholarship, research or language learning purposes only