» » »

Snake Eyes Tabs (ver.1)

Artists:  A B C D E F G H I J K L M N O P Q R S T U V W X Y Z # 

Snake Eyes Tabs (ver.1)

Nashville Pussy
Rating:
0/5 (0 votes)

Tabs too difficult? Try these video lessons and learn fast.
                Song name: Snake Eyes


                          3x
e|-----------------------|---------------------------|----------------------------|
b|-----------------------|---------------------------|----------------------------|
g|-----9---7-------------|---------------------------|----------------------------|
D|-9---9---7---7---7--7--|------------------9--7-----|----------------------------|
A|-9---7---5---7---7--7--|-9--11--9--11--9--7--5--7--|-9--11--9--11--9--11--9--11-|
E|-7-----------5---5--5--|-7---7--7---7--7--------5--|-7---7--7---7--7---7--7---7-|

  2x
e|-----------------------------------------------------|
b|-----------------------------------------------------|
g|----------------------------9--7---------------------|
D|-9--9--9--9--9--9--9--9-9---9--7--7-9---9--9--9--9-9-|
A|-9--9--9--9--9--9--9--9-9---7--5--7-9---9--9--9--9-9-|
E|-7--7--7--7--7--7--7--7-7---------5-7---7--7--7--7-7-|

e|----------------------------------------------|
b|----------------------------------------------|
g|----------------------------9---7-------------|
D|-4--4--4--4-7---7--7--7-9---9---7---7---7--7--|
A|-4--4--4--4-7---7--7--7-9---7---5---7---7--7--|
E|-2--2--2--2-5---5--5--5-7-----------5---5--5--|

e|---------------------------|----------------------------|
b|---------------------------|----------------------------|
g|---------------------------|----------------------------|
D|------------------9--7-----|----------------------------|
A|-9--11--9--11--9--7--5--7--|-9--11--9--11--9--11--9--11-|
E|-7---7--7---7--7--------5--|-7---7--7---7--7---7--7---7-|

  2x
e|-----------------------------------------------------|
b|-----------------------------------------------------|
g|----------------------------9--7---------------------|
D|-9--9--9--9--9--9--9--9-9---9--7--7-9---9--9--9--9-9-|
A|-9--9--9--9--9--9--9--9-9---7--5--7-9---9--9--9--9-9-|
E|-7--7--7--7--7--7--7--7-7---------5-7---7--7--7--7-7-|

e|----------------------------------------------|
b|----------------------------------------------|
g|----------------------------9---7-------------|
D|-4--4--4--4-7---7--7--7-9---9---7---7---7--7--|
A|-4--4--4--4-7---7--7--7-9---7---5---7---7--7--|
E|-2--2--2--2-5---5--5--5-7-----------5---5--5--|


e|---------------------------|----------------------------|
b|---------------------------|----------------------------|
g|---------------------------|----------------------------|
D|------------------9--7-----|----------------------------|
A|-9--11--9--11--9--7--5--7--|-9--11--9--11--9--11--9--11-|
E|-7---7--7---7--7--------5--|-7---7--7---7--7---7--7---7-|

e|----------------------------------------------|
b|----------------------------------------------|
g|----------------------------9---7-------------|
D|-4--4--4--4-7---7--7--7-9---9---7---7---7--7--|
A|-4--4--4--4-7---7--7--7-9---7---5---7---7--7--|
E|-2--2--2--2-5---5--5--5-7-----------5---5--5--|

Back for solo I:
e|-----------------------------------------------------|
b|-----------------------------------------------------|
g|----------------9--7-----------------------9--7------|
D|-9--9--9--9-9---9--7--7-9---9--9--9--9-9---9--7--7-9-|
A|-9--9--9--9-9---7--5--7-9---9--9--9--9-9---7--5--7-9-|
E|-7--7--7--7-7---------5-7---7--7--7--7-7---------5-7-|

e|------------------------------------------------|
b|------------------------------------------------|
g|----------------9--7----------------------------|
D|-9--9--9--9-9---9--7--7-9---9--9--9--9--9--9--9-|
A|-9--9--9--9-9---7--5--7-9---9--9--9--9--9--9--9-|
E|-7--7--7--7-7---------5-7---7--7--7--7--7--7--7-|

  2x
e|-----------------------------------------------------|
b|-----------------------------------------------------|
g|----------------------------9--7---------------------|
D|-9--9--9--9--9--9--9--9-9---9--7--7-9---9--9--9--9-9-|
A|-9--9--9--9--9--9--9--9-9---7--5--7-9---9--9--9--9-9-|
E|-7--7--7--7--7--7--7--7-7---------5-7---7--7--7--7-7-|

e|----------------------------------------------|
b|----------------------------------------------|
g|----------------------------9---7-------------|
D|-4--4--4--4-7---7--7--7-9---9---7---7---7--7--|
A|-4--4--4--4-7---7--7--7-9---7---5---7---7--7--|
E|-2--2--2--2-5---5--5--5-7-----------5---5--5--|

e|---------------------------|----------------------------|
b|---------------------------|----------------------------|
g|---------------------------|----------------------------|
D|------------------9--7-----|----------------------------|
A|-9--11--9--11--9--7--5--7--|-9--11--9--11--9--11--9--11-|
E|-7---7--7---7--7--------5--|-7---7--7---7--7---7--7---7-|

e|----------------------------------------------|
b|----------------------------------------------|
g|----------------------------9---7-------------|
D|-4--4--4--4-7---7--7--7-9---9---7---7---7--7--|
A|-4--4--4--4-7---7--7--7-9---7---5---7---7--7--|
E|-2--2--2--2-5---5--5--5-7-----------5---5--5--|

Back for solo II:
e|-----------------------------------------------------|
b|-----------------------------------------------------|
g|----------------9--7-----------------------9--7------|
D|-9--9--9--9-9---9--7--7-9---9--9--9--9-9---9--7--7-9-|
A|-9--9--9--9-9---7--5--7-9---9--9--9--9-9---7--5--7-9-|
E|-7--7--7--7-7---------5-7---7--7--7--7-7---------5-7-|

e|------------------------------------------------|
b|------------------------------------------------|
g|----------------9--7----------------------------|
D|-9--9--9--9-9---9--7--7-9---9--9--9--9--9--9--9-|
A|-9--9--9--9-9---7--5--7-9---9--9--9--9--9--9--9-|
E|-7--7--7--7-7---------5-7---7--7--7--7--7--7--7-|

e|-----------------------|------------------------|
b|-----------------------|------------------------|
g|-----9---7-------------|------------------------|
D|-9---9---7---7---7--7--|-9\---------------------|
A|-9---7---5---7---7--7--|-9\---------------------|
E|-7-----------5---5--5--|-7\---------------------|

See you then. Nevyk.
            
Tabs too difficult? Try these video lessons and learn fast.


comments powered by Disqus
↑ Back to top | Tablatures and chords are parodies/interpretations of the original songs. You may use it for private study, scholarship, research or language learning purposes only