» » »

Nashville Pussy, Shoot First Then Run Like Hell Tabs (ver.1)

Artists:  A B C D E F G H I J K L M N O P Q R S T U V W X Y Z # 

Shoot First Then Run Like Hell Tabs (ver.1)

Nashville Pussy Tabs
Rating:
0/5 (0 votes)
Hard to play? Try these video lessons and learn fast.
                

Intro – Riff A:             (Riff A2):

E----------------|          ----------|
B----------------|          ----------|
G-2-----2---2-2--|          --2----2--|
D-2-----2---2-2--| x6 then: --2----2--| then repeat Riff A 8x
A-0-3p0-0h3-0-0--|          --0----0--|
E----------------|          ----3b----|

Riff B:

E------------------------|------------------------|
B------------------------|------------------------|
G-2-2-0h2-2-0h2-0-5---55-|-2-2-0h2-2-0h2-0--------|
D-2-2-0h2-2-0h2-0-5---55-|-2-2-0h2-2-0h2-0-5---55-|
A-0-0-----0-------3---33-|-0-0-----0-------5---55-|
E------------------------|-----------------3---33-|

E------------------------|----------------|
B------------------------|----------------|
G-2-2-0h2-2-0h2-0-5---55-|-2-2-2-2--\\\\--|
D-2-2-0h2-2-0h2-0-5---55-|-2-2-2-2--\\\\--|
A-0-0-----0-------3---33-|-0-0-0-0--\\\\--|
E------------------------|----------------|
                                    PICKScr*pE

Verse - Riff C

E---------------|                         ------------|
B---------------|                         ------------|
G-2------5-7-5--|                         -2---5-7-5--|
D-2------5-7-5--| x2 then faster changes: -2---5-7-5--| x2
A-0------3-5-3--|                         -0---3-5-3--|
E---------------|                         ------------|

E-----------------|
B-----------------|
G-2---5--2-2---2--|
D-2---5--2-2---2--|
A-0---3--0-0---0--|
E-----------------|
              “Let’s get one thing clear...”

Chorus – Riff D

E-------------------------------|
B-------------------------------|
G-7----0/5--0/5--0/5--0/5--0/5--|
D-7----0/5--0/5--0/5--0/5--0/5--|  x2
A-5-----------------------------|
E-------------------------------|
  “Shoot...”

Guitar 2 solos while Guitar 1 plays Riff A. They both rejoin and play Riff B, 
this for the fourth measure:

E---------------------|
B---------------------|
G--2-2-2-2--5\-5\-5\--|
D--2-2-2-2--5\-5\-5\--|
A--0-0-0-0------------|
E---------------------|

Then while guitar 2 solos some more, Guitar 1 plays Riff E:

E---------------------------------------|
B---------------------------------------|
G---------------------------------------|
D-7--9-7-7-7-9-7-7-7-9-7-7--7--7--7--7--|
A-5--5-5-5-5-5-5-5-5-5-5-5--5--5--5--5--|
E---------------------------------------|

Then they rejoin and play Riff A. When Guitar 2 starts to solo again, Guitar 1 plays 
E and then Riff G.

Riff G:

E---------------------------------------|
B---------------------------------------|
G---------------------------------------|
D-9--9-9-9-9-9-9-9-9-9-9-9--8--7--6--5--|
A-7--7-7-7-7-7-7-7-7-7-7-7--6--5--4--3--|
E---------------------------------------|

Then Riff A 4x, with the added riff (labeled Riff A2) the last time.
You then play Riffs C, D, A 6x, B, then end on:

E-----|
B-----|
G--2--|
D--2--|
A--0--|
E-----|

Solos coming soon, to a computer near you!
            

comments powered by Disqus
↑ Back to top | Nashville Pussy Tabs for Shoot First Then Run Like Hell. Lyrics for acoustic guitar and electric guitar. Tablatures and chords are parodies/interpretations of the original songs. You may use it for private study, scholarship, research or language learning purposes only