» » »

Nashville Pussy, Go Motherfucker Go Tabs (ver.1)

Artists:  A B C D E F G H I J K L M N O P Q R S T U V W X Y Z # 

Go Motherfucker Go Tabs (ver.1)

Nashville Pussy Tabs
Rating:
0/5 (0 votes)
Go Motherfucker Go lessons Tabs too difficult? Try these video lessons and learn fast
                Song name: Go Motherf**ker Go!


  2x
e|-------------------------|
b|-------------------------|
g|-5--5-----5--5-----5-----|
D|-5--5--7--5--5--7--5--7--|
A|-------7--------7-----7--|
E|-------------------------|

e|---------------------------------------|
b|---------------------------------------|
g|---------------------------------------|
D|-9--9--9-9-9-9---9--9-9-9-9---9--9--9--|
A|-9--9--9-9-9-9---9--9-9-9-9---9--9--9--|
E|-7--7--7-7-7-7---7--7-7-7-7---7--7--7--|

e|-------------------------|
b|-------------------------|
g|-5--5-----5--5-----5-----|
D|-5--5--7--5--5--7--5--7--|
A|-------7--------7-----7--|
E|-------------------------|

e|---------------------------------------|
b|---------------------------------------|
g|---------------------------------------|
D|-9--9--9-9-9-9---9--9-9-9-9---9--9--9--|
A|-9--9--9-9-9-9---9--9-9-9-9---9--9--9--|
E|-7--7--7-7-7-7---7--7-7-7-7---7--7--7--|

e|-------------------------|
b|-------------------------|
g|-5--5-----5--5-----5-----|
D|-5--5--7--5--5--7--5--7--|
A|-------7--------7-----7--|
E|-------------------------|

  2x
e|-------------------------------------------------|
b|-------------------------------------------------|
g|-------------------------------------------------|
D|-9--9--9--9--9--9--9--9--9--9--9--9--9--7-9---9--|
A|-9--9--9--9--9--9--9--9--9--9--9--9--9--7-9---9--|
E|-7--7--7--7--7--7--7--7--7--7--7--7--7--5-7---7--|

  3x
e|-----------------------|
b|-----------------------|
g|-7---------------------|
D|-7----7---9---9--9--9--|
A|-5----7---9---9--9--9--|
E|------5---7---7--7--7--|

e|--------------------------|
b|--------------------------|
g|--------------------------|
D|-9--9--9-9-9-9---9--9--9--|
A|-9--9--9-9-9-9---9--9--9--|
E|-7--7--7-7-7-7---7--7--7--|

e|-------------------------|
b|-------------------------|
g|-5--5-----5--5-----5-----|
D|-5--5--7--5--5--7--5--7--|
A|-------7--------7-----7--|
E|-------------------------|

  2x
e|-------------------------------------------------|
b|-------------------------------------------------|
g|-------------------------------------------------|
D|-9--9--9--9--9--9--9--9--9--9--9--9--9--7-9---9--|
A|-9--9--9--9--9--9--9--9--9--9--9--9--9--7-9---9--|
E|-7--7--7--7--7--7--7--7--7--7--7--7--7--5-7---7--|

  3x
e|-----------------------|
b|-----------------------|
g|-7---------------------|
D|-7----7---9---9--9--9--|
A|-5----7---9---9--9--9--|
E|------5---7---7--7--7--|

e|--------------------------|
b|--------------------------|
g|--------------------------|
D|-9--9--9-9-9-9---9--9--9--|
A|-9--9--9-9-9-9---9--9--9--|
E|-7--7--7-7-7-7---7--7--7--|

e|-------------------------|
b|-------------------------|
g|-5--5-----5--5-----5-----|
D|-5--5--7--5--5--7--5--7--|
A|-------7--------7-----7--|
E|-------------------------|

e|---------------------------------------|
b|---------------------------------------|
g|---------------------------------------|
D|-9--9--9-9-9-9---9--9-9-9-9---9--9--9--|
A|-9--9--9-9-9-9---9--9-9-9-9---9--9--9--|
E|-7--7--7-7-7-7---7--7-7-7-7---7--7--7--|

e|-------------------------|
b|-------------------------|
g|-5--5-----5--5-----5-----|
D|-5--5--7--5--5--7--5--7--|
A|-------7--------7-----7--|
E|-------------------------|

Back for solo I:
e|----------------------------------------------------------|
b|----------------------------------------------------------|
g|-------------------------------------5-------5-------5----|
D|-9--9--9--9--9--9--9--9--9--9--9--9--5----7--5----7--5----|
A|-9--9--9--9--9--9--9--9--9--9--9--9-------7-------7-------|
E|-7--7--7--7--7--7--7--7--7--7--7--7-----------------------|

e|-------------------------------------------------------------|
b|-------------------------------------------------------------|
g|-------------------------------------5--5-----5--5-----5-----|
D|-9--9--9--9--9--9--9--9--9--9--9--9--5--5--7--5--5--7--5--7--|
A|-9--9--9--9--9--9--9--9--9--9--9--9--------7--------7-----7--|
E|-7--7--7--7--7--7--7--7--7--7--7--7--------------------------|

  2x
e|-------------------------------------------------|
b|-------------------------------------------------|
g|-------------------------------------------------|
D|-9--9--9--9--9--9--9--9--9--9--9--9--9--7-9---9--|
A|-9--9--9--9--9--9--9--9--9--9--9--9--9--7-9---9--|
E|-7--7--7--7--7--7--7--7--7--7--7--7--7--5-7---7--|

  3x
e|-----------------------|
b|-----------------------|
g|-7---------------------|
D|-7----7---9---9--9--9--|
A|-5----7---9---9--9--9--|
E|------5---7---7--7--7--|

e|--------------------------|
b|--------------------------|
g|--------------------------|
D|-9--9--9-9-9-9---9--9--9--|
A|-9--9--9-9-9-9---9--9--9--|
E|-7--7--7-7-7-7---7--7--7--|

e|-------------------------|
b|-------------------------|
g|-5--5-----5--5-----5-----|
D|-5--5--7--5--5--7--5--7--|
A|-------7--------7-----7--|
E|-------------------------|

e|---------------------------------------|
b|---------------------------------------|
g|---------------------------------------|
D|-9--9--9-9-9-9---9--9-9-9-9---9--9--9--|
A|-9--9--9-9-9-9---9--9-9-9-9---9--9--9--|
E|-7--7--7-7-7-7---7--7-7-7-7---7--7--7--|

e|-------------------------|
b|-------------------------|
g|-5--5-----5--5-----5-----|
D|-5--5--7--5--5--7--5--7--|
A|-------7--------7-----7--|
E|-------------------------|

e|---------------------------------------|
b|---------------------------------------|
g|---------------------------------------|
D|-9--9--9-9-9-9---9--9-9-9-9---9--9--9--|
A|-9--9--9-9-9-9---9--9-9-9-9---9--9--9--|
E|-7--7--7-7-7-7---7--7-7-7-7---7--7--7--|

  4x
e|-------------------------|-------------|
b|-------------------------|-------------|
g|-5--5-----5--5-----5-----|-------------|
D|-5--5--7--5--5--7--5--7--|-9--x--------|
A|-------7--------7-----7--|-9--x--------|
E|-------------------------|-7--x--------|





Back for solo II:
  4x
e|-------------------------------------------------|---------------------|
b|-------------------------------------------------|---------------------|
g|-------------------------------------------------|---------------------|
D|-9--9--9--9--9--9--9--9--9--9--9--9--9--7-9---9--|----------9\---------|
A|-9--9--9--9--9--9--9--9--9--9--9--9--9--7-9---9--|----------9\---------|
E|-7--7--7--7--7--7--7--7--7--7--7--7--7--5-7---7--|----------7\---------|


See you then. Nevyk.
            
Submit corrections

comments powered by Disqus
↑ Back to top | Nashville Pussy Tabs for Go Motherfucker Go. Lyrics for acoustic guitar and electric guitar. Tablatures and chords are parodies/interpretations of the original songs. You may use it for private study, scholarship, research or language learning purposes only