» » »

Hip Hop Is Dead Bass tabs (ver.4)

Artists:  A B C D E F G H I J K L M N O P Q R S T U V W X Y Z # 

Hip Hop Is Dead Bass tabs (ver.4)

Nas
Rating:
0/5 (0 votes)

Hard to play? Try these video lessons and learn fast.
                
|---------------------|
|-0-0-3-2---0-7-6-5-3-|
|---------3-----------|
|---------------------|

|---------------------|
|-0-0-3-2---0-7-6-5-3-|
|---------3-----------|
|---------------------|

|---------------------|
|-0-0-3-2---0-7-6-5-3-|
|---------3-----------|
|---------------------|

|---------------------|
|-0-0-3-2---0-7-6-5-3-|
|---------3-----------|
|---------------------|

Repeat for the whole song.

My first tab.
            
Hard to play? Try these video lessons and learn fast. | Correct




comments powered by Disqus
↑ Back to top | Tablatures and chords are parodies/interpretations of the original songs. You may use it for private study, scholarship, research or language learning purposes only