» » »

Hip Hop Is Dead Bass tabs (ver.1)

Artists:  A B C D E F G H I J K L M N O P Q R S T U V W X Y Z # 

Hip Hop Is Dead Bass tabs (ver.1)

Nas
Rating:
0/5 (0 votes)

Hard to play? Try these video lessons and learn fast.
                I was looking for the bass tab for this song but the one on this site is
sh*te. so heres my version of it which i think sounds correct. enjoy :D

Normal Tuning

|-----------------------|----------------------|
|-------3-2-------7-6-5-|-------3-2------7-6-5-|
|-5--5-------3-5--------|-3--5-------3-5-------|
|-----------------------|----------------------|
repeat this till the end

this is just something i like to add into it

|---x-7-x-5---------|---x-7-x-5---------|
|-----------x-5-6-7-|-------------------|
|-5-----------------|-5-----------------|
|-------------------|-----------x-5-6-7-|
            
Hard to play? Try these video lessons and learn fast. | Correct




comments powered by Disqus
↑ Back to top | Tablatures and chords are parodies/interpretations of the original songs. You may use it for private study, scholarship, research or language learning purposes only