» » »

Halftime Bass tabs (ver.1)

Artists:  A B C D E F G H I J K L M N O P Q R S T U V W X Y Z # 

Halftime Bass tabs (ver.1)

Nas
Rating:
0/5 (0 votes)
Tabs too difficult? Try these video lessons and learn fast.
                
G|--------------------------------------------|
D|--------------------------------------------|
A|--------------x77--------(-x5-7-5-7-)-------|
E|-7-x7--x1010-------x99----------------------|
This figure is most of the tune with the notes in parenthesis being the end of the hook 
going back into the verse REPLACING the last two C#'s [ the x99's ]


G|------------7-9-----------------------|
D|--------9-----------------------------|   X 2
A|--7---7---------7--x5-7-5-7-----------|
E|--------------------------------------|
The groove changes to this mid verse, and then goes back to the first figure after 2 times.

*There are emphatic pauses in the bass throughout the song for lyrical effect.
            
Tabs too difficult? Try these video lessons and learn fast.


comments powered by Disqus
↑ Back to top | Tablatures and chords are parodies/interpretations of the original songs. You may use it for private study, scholarship, research or language learning purposes only