>
 >
Paseavase El Rey Moro

Paseavase El Rey Moro Guitar Tabs

Narvaez Luis De - Paseavase El Rey Moro chords, tabs, tablatures, lyrics

Guitar lessons | Add/correct | Request | Top 50 tabs Artists:  A B C D E F G H I J K L M N O P Q R S T U V W X Y Z 0-9

Paseavase El Rey Moro Guitar Tabs – Narvaez Luis De

CD, Sheet music, Poster

Do you like Paseavase El Rey Moro? Share with your friends now
Tabs
                        Paseábase El Rey Moro                               
                               Libro V
  Los Seys Libros del Delphin de Música de cifra para tañer vihuela (1538)
                                                           Luys de Narváez
 (Capo 3)

     
E||---0----3----|--2-----------|------------|--0---------|--2---------|
B||-------------|--------------|-------0----|-------1----|--0----3----|
G||*--0---------|--2--0-----1--|--2----0----|--0---------|------------|
D||*--2---------|--0-----4-----|--0---------|--2---------|--0---------|
A||-------------|--------------|------------|-------3----|------------|
E||-------------|--------------|------------|------------|------------|

  
--3----------|--------2----|--0---------|--0----3----|--2-----------|
--0----------|--0--2--3----|--2---------|------------|--------------|
-------0--2--|-------------|-------2----|-------0----|--2--0-----1--|
--2----------|--------0----|------------|-------2----|--0-----4-----|
-------------|-------------|--0---------|--0---------|--------------|
-------------|-------------|------------|------------|--------------|

     
----------|--0---------|--2--------|--3---------|--------2---|--0--------|
------0---|-------1----|-------3---|--0---------|--0--2--3---|--2--------|
--2---0---|--0---------|--2--------|------0--2--|------------|-------2---|
----------|--2---------|--0--------|--2---------|--------0---|-----------|
----------|-------3----|-----------|------------|------------|--0--------|
----------|------------|-----------|------------|------------|-----------|

     
--0----3--0--|--2--3--2--0--|--------------|--------------|--------------|
-------------|--------------|--3--1--0-----|--0-----------|--0-----------|
-------------|--------------|-----------2--|-----2--0-----|--------------|
-------------|--0-----------|--0-----0-----|-----------4--|--2--0--------|
--0----------|--------------|--------------|--------------|--------3--2--|
-------------|--------------|--------------|--3-----------|--------------|

       
--------------|------------|--------------|-------------|------------|
--1-----------|--1----0----|--------------|-------------|--0---------|
---------2----|-------1----|--2-----------|--2-----2----|--1----2----|
--------------|-------2----|--4------0----|-----2--4----|--2---------|
--0-----------|------------|--------------|-------------|-------0----|
--------------|------------|--------------|-------------|--0---------|

     
------------|--------------|------------|--0---------|--0---------|
--0----0----|--1-----------|--3---------|------------|------------|
--2----1----|---------2----|-------0----|-------2----|--0---------|
--2---------|--------------|--4---------|--2---------|-------2----|
------------|--0-----------|--2---------|--3---------|-------3----|
--0---------|--------------|------------|------------|------------|

     
-------------|-------------|-------------|------------|-----------0--|
--3-------1--|--0-----1----|-----0--0----|------------|--0--2--3-----|
-------0-----|-----2-------|-------------|--0----2----|--------------|
--4----------|--------2----|--------0----|--2----2----|--4-----------|
--2----------|--------0----|--2-----9----|-------3----|--2-----------|
-------3-----|-------------|-------------|------------|--------------|

         
--2--0--3----|-----2--2----|-------0----|------------||
--------0----|-------------|--0---------|--4---------||
-------------|--------2----|--0---------|--4--------*||
--------2----|--------1----|--2---------|--4--------*||
--2----------|--2----------|------------|--2---------||
--------0----|-------------|-------0----|------------||





Comments


Popular Narvaez Luis De tabs & chords
Fantasia Vi Tabs
Guardame Las Vacas Tabs
Guardame Las Vacas 1 Tabs
Je Veulx Laysser Melancolie Tabs
Ya Se Asienta El Rey Ramiro Tabs


Song lyrics



↑ Back to top | Tablatures and chords are parodies/interpretations of the original songs. You may use it for private study, scholarship, research or language learning purposes only
© 2014 AZChords.com Contact us | Privacy policy | DMCA | Add/correct tabs | Request tabs | Top 50 tabs