>
 >
Fantasia Vi

Fantasia Vi Guitar Tabs

Narvaez Luis De - Fantasia Vi chords, tabs, tablatures, lyrics

Guitar lessons | Add/correct | Request | Top 50 tabs Artists:  A B C D E F G H I J K L M N O P Q R S T U V W X Y Z 0-9

Fantasia Vi Guitar Tabs – Narvaez Luis De

CD, Sheet music, Poster

Do you like Fantasia Vi? Share with your friends now
Tabs
             Fantasia VI - Libro II    -  Luys de Narváez
 de "Los Seys Libros del Delphin de Música de Cifra para Tañer Vihuela"
                        (Valladolid, 1538)

  
 Also Capo on 2nd or 3rd fret can be used

Molto Allegro

1  .       .         .       .         .       .         .       .
e|-------0---------|----7------------|-----5-----2-----|----3-----0------|
B|-----------------|-----------------|-----------------|-----------------|
G|-----------------|-----------------|-----------------|-----------------|
D|-----------------|-----------------|-----------------|----2------------|
A|-----------------|-----------------|-----------------|-----------------|
E|-----------------|-----------------|-----------------|-----------------|

5  .       .         .       .         .       .         .       .
e|-----2-----3-----|----------2------|---------0---0---|-----------------|
B|-----0-----------|-----------------|-----------------|----------3------|
G|-----------------|---2-------------|----0------------|-----------------|
D|-----------------|----------4------|-------------2---|----4------------|
A|-----------------|-----------------|-----------------|----2------------|
E|-----------------|-----------------|-----------------|-----------------|


9  .       .         .       .         .       .         .       .
e|-----------------|-----------------|-----------------|-----------------|
B|----0------1-----|--------0---0----|-----------------|-----------------|
G|-----------------|-----------------|--------2----2---|-----------0-----|
D|----2------------|---0-------------|-----------------|-----------------|
A|-----------------|------------5----|---3---------0---|----2------------|
E|-----------------|-----------------|-----------------|----0------------|

13  .       .         .       .         .       .         .       .
e|-----------------|-----------------|-----------------|-----------------|
B|-----------------|-----------------|-----------------|-----------------|
G|----------0------|-----------------|-----------------|----2------------|
D|----4------------|---------4---4---|----------2------|----2------1-----|
A|----2------------|---0-------------|-----------------|-----------------|
E|-----------------|-------------2---|----3-----0------|----2------------|

17  .       .         .       .         .       .         .       .
e|----------0------|-----5-----------|----3---------2--|----0-----5------|
B|-----------------|-----------------|-----------------|----1------------|
G|----------0------|-----------------|----------0------|-----------------|
D|----2------------|-----4-----0-----|----2------------|-----------------|
A|-----------------|-----------------|-----------------|----------0------|
E|----0------------|-----------------|-----------------|-----------------|


21  .       .         .       .         .       .         .       .
e|-----------3-----|----------2------|----------0------|----7------------|
B|----0------------|----------0------|-----------------|-----------------|
G|-----------------|-----------------|----0-----2------|----0------------|
D|----2------------|----------0------|-----------------|-----------4-----|
A|-----------------|----2------------|----4-----0------|----2------------|
E|-----------------|-----------------|-----------------|-----------------|

25  .       .         .       .         .       .         .       .
e|----------0------|----5------------|----------3------|---0-------------|
B|----------0------|-----------------|-----------------|-----------------|
G|-----------------|-----------------|-----------------|---0-------------|
D|-----------------|-----------------|------0---2---4--|-----------------|
A|-----------------|---------0---2---|--4--------------|-----------------|
E|----0-----3------|----2------------|-----------------|--------0----2---|

29  .       .          .      .          .      .          .      .
e|-----------------|-----------------|-------0--2--3---|----5------------|
B|-----------3-----|---0-----0---2---|---3-------------|-------------0---|
G|-----------------|-----------------|---4------2------|---------2-------|
D|-----------------|---0-------------|-----------------|----4------------|
A|-------0---2--4--|-----------------|-----------------|-----------------|
E|---3-------------|-----------------|-----------------|-----------------|

33  .       .          .      .          .      .          .      .
e|------------0--2-|---3-------------|------------2----|------0----------|
B|--2---3----------|-----------------|---0----2--------|--3-------3---2--|
G|----------0------|----------0---2--|------------2----|-----------------|
D|-----------------|---2---4---------|------------0----|-----------------|
A|-----------------|-----------------|-----------------|--2--------------|
E|-----------------|-----------------|---0-------------|-----------------|

37  .       .          .      .          .      .          .      .
e|------------3----|--2-----0--------|-----------------|-----------------|
B|---0--------0----|-----------------|-----------------|-----------------|
G|--------2--------|--2---------0----|---------0-------|-----------------|
D|-----------------|-----------------|----4------------|---4-----2-------|
A|-----------------|--0--------------|----2------------|---0-------------|
E|------------3----|-----------------|---------0-------|------------3----|

41  .       .          .      .          .      .          .      .
e|-----------------|-----------------|-----------------|-----------------|
B|-----------------|-----------------|-----------------|----------0---2--|
G|-----------------|-----------------|------0---2------|--0---2----------|
D|---0-------------|-----------0---2-|--4-----------4--|-----------------|
A|---------4-------|---2---4---------|-----------------|-----------------|
E|---2-----5-------|---3-------------|--2--------------|--0--------------|

45  .       .          .      .          .      .          .      .
e|------0----2-----|---0-------------|--3--------------|---3-------------|
B|--3-----------3--|---1-------------|--0--------------|---0-------------|
G|-----------------|-----------------|---------0---2---|-----------------|
D|--4--------------|--------------0--|--2---4----------|-----------------|
A|--2--------------|---0---2---3-----|-----------------|--------------0--|
E|-----------------|-----------------|---------0-------|---0---2---3-----|

49  .       .          .      .          .      .          .      .  
e|--2--------------|---0--------2----|----3-----2------|---------0-------|
B|--3--------------|---0----1--------|----0------------|-----------------|
G|-----------------|-----------------|----------2------|-----0-----------|
D|----------0------|-----------------|-----------------|---------4---2---|
A|--2---3-------2--|---3-------------|----------0------|--2------3-------|
E|-----------------|-----------------|----3------------|-----------------|

53  .       .          .      .          .      .          .      .
e|---0-------------|---0-------------|---0-------------|----0------------|
B|---------4-------|-----------------|--------0--------|----1-----0------|
G|-----------------|--------0--------|---2-------------|-----------------|
D|---4-------------|-----------------|-----------------|-----------------|
A|---0-----2-------|---3--------2----|---0-------------|-----------------|
E|-----------------|-----------------|--------3---2----|----0-----3------|

57  .       .          .      .          .      .          .      .
e|---0-------------|---0-------------|---0-------------|---0-------------|
B|-----------------|-----------------|--------0--------|---1-----0-------|
G|---2----0--------|--------0--------|---2-------------|-----------------|
D|------------4----|---2-------------|-----------------|-----------------|
A|---0----2--------|---3--------2----|---0-------------|-----------------|
E|-----------------|-----------------|--------3----2---|---0-----3-------|

61  .       .          .      .          .      .          .      .      
e|---0-------------|----0------------|-----------------|----------------||
B|---------1-------|----0------------|-----------------|----------------||
G|---2-------------|----0------------|-----------------|----------------||
D|-----------------|----2------------|-----------------|----------------||
A|---0-------------|----2------------|-----------------|----------------||
E|-----------------|----0------------|-----------------|----------------||
  


**************************************************************************





Comments


Popular Narvaez Luis De tabs & chords
Guardame Las Vacas Tabs
Guardame Las Vacas 1 Tabs
Je Veulx Laysser Melancolie Tabs
Paseavase El Rey Moro Tabs
Ya Se Asienta El Rey Ramiro Tabs


Song lyrics



↑ Back to top | Tablatures and chords are parodies/interpretations of the original songs. You may use it for private study, scholarship, research or language learning purposes only
© 2014 AZChords.com Contact us | Privacy policy | DMCA | Add/correct tabs | Request tabs | Top 50 tabs