>
 >
The Return Of Aslan

The Return Of Aslan Guitar Tabs

Narnia - The Return Of Aslan chords, tabs, tablatures, lyrics

Guitar lessons | Add/correct | Request | Top 50 tabs Artists:  A B C D E F G H I J K L M N O P Q R S T U V W X Y Z 0-9

The Return Of Aslan Guitar Tabs – Narnia

CD, Sheet music, Poster

Do you like The Return Of Aslan? Share with your friends now
Tabs
************************************************************
************************************************************
 Music By: CJ. Grimmark/J.Persson

Day tabbed: 9.2.2001

Please mail me if you can find mistakes!

-----------------------------------------

 Tune Down 1/2 Step!

                       Riff 1
E--------------------|--------------------------------------------------------------|
B-------------|------|--------------------------------------------------------------|
G--Drum-Fill--|------|--------------------------------------------------------------|
D--(1-sec)---|------|--------------------------------------------------------------|
A-------------|------|----7----8-7----2-5-----7----8-7----2-5-----7----8-7----2-5---|
E---------------12\--|-0----0------0-------0----0------0-------0----0------0-------0|
                           pm                  pm                  pm

E-----------------------------------------------------------------------------------|
B-----------------------------6-----------------------------------------------------|
G-----------------------5-7-9-------------------------------------------------------|
D-----------6-7-9-6-7-9-------------------------------------------------------------|
A-7-8-7-5-7---------------------------7----8-7----2-5-----7----8-7----2-5-----7----8|
E----------------------------------0----0------0-------0----0------0-------0----0---|
                                       pm                  pm                  pm

                                      end Riff 1    Guitar Solo 1 (with Riff 1 x2)
E-----------------------------------------------------------------------------------|
B-------------------------------------------------|--15b(17)~~---r15----------------|
G-----------/10-9-7-9--9-7-5-7--7-5---------------|-------------------13~~---13--14-|
D-----------------------------------9-7-6---------|---------------------------------|
A-7----2-5--------------------------------8-7-5---|---------------------------------|
E---0-------------------------------------------------------------------------------|

E---------------------------/-13-10-12-13-12-10-13-10-12-13-12-10-------------------|
B------13-b-(15)~--r13-13~~---------------------------------------13-10-12-13-12-10-|
G-16--------------------------------------------------------------------------------|
D-----------------------------------------------------------------------------------|
A-----------------------------------------------------------------------------------|
E-----------------------------------------------------------------------------------|

E-----------------------------------------------------------------------------------|
B--------------10-12-13-12-10---------------10-12-13-12b(13)-r12~-10h12p10\9h10p9h10|
G12-10-9-10-12----------------12-10-9-10-12-----------------------------------------|
D-----------------------------------------------------------------------------------|
A-----------------------------------------------------------------------------------|
E-----------------------------------------------------------------------------------|

E-----------12---12~~---------------------------------------------------------------|
Br9-----------------------15-b(17)--(17)--(17)-r-15b(17)-r-15-/-17-b(18)~-r-17~~~~--|
G---10-9~------9----------------------/---------------------------------------------|
D-------------------------------------/---------------------------------------------|
A-------------------------------------/---------------------------------------------|
E-----------------------------------------------------------------------------------|

E13-10-12-13-12-10------------------------------------------------------------------|
B------------------13-12-10-12-13-12-10\9---------9/10-12-13-12-10\9----------------|
G-----------------------------------------10-9-10--------------------10-9-10-9------|
D------------------------------------------------------------------------------12-10|
A-----------------------------------------------------------------------------------|
E-----------------------------------------------------------------------------------|

                                                                       Riff 2A (Two
E----------------------------------------------------------------------------8------|
B-----------------------------------------------------/10--h12-------|--10~--10-10--|
G-------------------------------------------------9~~----------13~~--|---9~------9--|
D-12-10-9-----------------------------------10-12-~------------------|--------------|
A---------12-11-12-----------------11-12-14--------------------------|--------------|
E-------------------13-12~~--12h13--------------------------------------------------|

 Guitars, with Riff 2B)
E--------11------------12------------14-----------9-------------11------------12----|
B-/-12~--12-12--/-13~--13-13--/-15~--15-15---10~--10-10--/-12~--12-12--/-13~--13-13-|
G-/-11~-----11--/-12~-----12--/-14~-----14----9~------9--/-11~-----11--/-12~-----12-|
D-----------------------------------------------------------------------------------|
A-----------------------------------------------------------------------------------|
E-----------------------------------------------------------------------------------|

E--------14----------12------------15------------16------------18------------13-----|
B-/-15~--15---\-14~--14-14--/-16~--16-16--/-17~--17-17--/-19~--19-19----14~--14-14--|
G-/-14~-------\-13~-----13--/-15~-----15--/-16~-----16--/-18~-----18----13~-----13--|
D-----------------------------------------------------------------------------------|
A-----------------------------------------------------------------------------------|
E-----------------------------------------------------------------------------------|

                              end Riff 2A&2B
E--------15------------16------------18---------------------------------------------|
B-/-16~--16-16--/-17~--17-17--/-19~--19-19---|--7---6~--\-5---4~--\-3---2~---5---4~-|
G-/-15~~----15--/-16~-----16--/-18~-----18---|--6---6~--\-4---4~--\-2---2~---4---4~-|
D--------------------------------------------|--6---6~--\-4---4~--\-2---2~---4---4~-|
A--------------------------------------------|--4---4~--\-2---2~--\-0---0~---2---2~-|
E-----------------------------------------------------------------------------------|

  Guitar Solo 2
E-----------------------------------------------------------------------------------|
B-----------------------------------------------------------------------------------|
G----------------------------------------------------------14-\-12-/-14-14-\-12~~---|
D-----------------------------------------12-14-16-16-16~--------------------------\|
A--------------------------------12-14-15-------------------------------------------|
E--12--12--10h12--10~---12-14-15----------------------------------------------------|

                                                                   T           T
E---------------10-12-13-12-10---------------------10-12-13-12-10-16p13p12p10-16p13p|
B----9h10-12-13----------------13-12-10\9/10-12-13----------------------------------|
G-----------------------------------------------------------------------------------|
D-----------------------------------------------------------------------------------|
A-\---------------------------------------------------------------------------------|
E-----------------------------------------------------------------------------------|

E12p10------------------------------------------------------------------------------|
B------13-12-10-13-12-10\9------10~~-\-9~-------------------/--18-15-17-18-17-15/21-|
G--------------------------10-9-----------10~-9~-7~---------------------------------|
D---------------------------------------------------10~-9~~-------------------------|
A-----------------------------------------------------------------------------------|
E-----------------------------------------------------------------------------------|

E-----------------------------------------------------------------------------------|
B18-17-15/21-18-17-15/21-18-17-15/21-18-17-15/21-18-17-15/21-18-17-15/21-18-17-15/21|
G-----------------------------------------------------------------------------------|
D-----------------------------------------------------------------------------------|
A-----------------------------------------------------------------------------------|
E-----------------------------------------------------------------------------------|

E-----------------------------------------------------------------------------------|
B-18-17-15--------------------------------------------------------------------------|
G-----------17-16-14/16\14----------------14-16-17-16-14/16\14----------------14-16-|
D--------------------------17-15-14-15-17----------------------17-15-14-15-17-------|
A-----------------------------------------------------------------------------------|
E-----------------------------------------------------------------------------------|

E-----------------------------------------13-12-10----------------------------------|
B--------------------------------------------------13-12-10\9-10-9------------------|
G17-16-14/16\14-------------14----16~--\---------------------------10-9-------------|
D---------------17-15-14~~-----14---------------------------------------12-10-9-10-9|
A-----------------------------------------------------------------------------------|
E-----------------------------------------------------------------------------------|

E-----------------------------------------------------------------------------------|
B-----------------------------------------------------------------------------------|
G---------------------------------------------------------------------------------12|
D---------------------------------------------------------------12-14-15-12-14-15---|
A-12-11-8\7-8-7-------------------------------12-14-15-12-14-15---------------------|
E---------------10-8-7~~--/-12-13-16-12-13-16---------------------------------------|
                           pm..................................|

E----------------------------------13-15-17-13-15-17-/19b(20)-r19~~--17-16----------|
B----------------13-15-17-13-15-17--------------------------------------------------|
G-14-16-12-14-16--------------------------------------------------------------------|
D-----------------------------------------------------------------------------------|
A---------------------------------------------------------------------------\-12h15-|
E-----------------------------------------------------------------------------------|

E----------12h17~~---17p15p13-15p13p12-13-12-10----12-10-8---------------8----------|
B-------13--------------------------------------13---------12-10-9-10-12---12-10-9-1|
G----14-----------------------------------------------------------------------------|
D-14--------------------------------------------------------------------------------|
A-----------------------------------------------------------------------------------|
E-----------------------------------------------------------------------------------|

E-----8---------------8-10-12/13-12-10\8-10-8---------------------------------------|
B0-12---12-10-9-10-12-------------------------12-10-9-10~---------------------------|
G---------------------------------------------------------9~------------------------|
D------------------------------------------------------------10~-9h10p9p7h9~-7-9-7-9|
A-----------------------------------------------------------------------------------|
E-----------------------------------------------------------------------------------|

E-----------/3h5h7-3h5h7-5h7h8-5h7h8-7h8h10-7h8h10-8h10h12-8h10h12-10h12h13-10h12h13|
B-----------------------------------------------------------------------------------|
G----7-9~~--------------------------------------------------------------------------|
D-10--------------------------------------------------------------------------------|
A-----------------------------------------------------------------------------------|
E-----------------------------------------------------------------------------------|

E-12h13h15-12h13h15p12-/15b(17)~~--r15--12/17----19----20----20b(22)~~-r-20~~-19-17-|
B---------------------------------------------17----17----17------------------------|
G-----------------------------------------------------------------------------------|
D-----------------------------------------------------------------------------------|
A-----------------------------------------------------------------------------------|
E-----------------------------------------------------------------------------------|
                                                                            
E19b(20)r19----19-\-17-15b(17)r15----15----15-\-14~--14~~--12-\-10~~--\---|
B-----------17--------------------13----13--------------------------------|
G-------------------------------------------------------------------------|
D-------------------------------------------------------------------------|
A-------------------------------------------------------------------------|
E-------------------------------------------------------------------------|

  Guitar 1
E--10----------------------------------------------------------------/15--15-p13h12-|
B------13---12---13-----------------------------------------------------------------|
G--------------------13~------11--13--14~-------------14~---------------------------|
D-----------------------------------------------------------------------------------|
A-----------------------------------------------------------------------------------|
E-----------------------------------------------------------------------------------|
  Guitar 2 (clean sound)					                              |
E----------0-----------------0----------------0----------------0----------------1---|
B-----0------0---0-------0-----0---0------1-----1---2------2-----2---2------3-----3-|
G---1---1------1-------1---0-----1------2---2-----2------2---2-----2------2---2-----|
D-2------------------0----------------2----------------2---------------/3-----------|
A-----------------------------------------------------------------------------------|
E-----------------------------------------------------------------------------------|

								   Dist. off   Guitar 1
Eh12-\-11-------11-14-/-17~~-------------16~~---------------------------------------|
B-----------12-----------------------------------------------|--3-----6-5----------3|
G------------------------------------------------------------|------------5-4-------|
D------------------------------------------------------------|----------------------|
A------------------------------------------------------------|----------------------|
E-----------------------------------------------------------------------------------|
                                                             | Guitar 2             |
E---------------2-----------------0---------------0-------------------1-0-----------|
B---3-------4-----4---4---------1---1-----------0---0--------|------3--------------3|
G-2-------4---4-----4---------2-------2-------1-------1------|----2--------------0--|
D-----/-4-------------------2-----------2---2-----------2----|--0--------------0----|
A------------------------------------------------------------|------------\3-2------|
E-----------------------\0----------------0-----------------------------------------|

E-3~--------------0-----------------------------------------------------------------|
B------1--------1-------------------6-----3----------------------3-----------2------|
G-------------------------2-2-2--------------4-2-1---------1-2----------------------|
D--------------------------------------------------------2--------------------------|
A-----------------------------------------------------------------------------------|
E-----------------------------------------------------------------------------------|
                                                                                    |
E----------------------------1---------------------------4--------------5-----------|
B-------------1------------1--------------3------------5---5--------------5---------|
G-----------0------------2--------------4------------4-------4--------------7-----6-|
D---------2------------3--------------3------------------------------7----------7---|
A-/-0-2-3-------\3-2-0---------0-0/-2--------\2-0------------------7----------7-----|
E-------------------------------------------------4--------------5------------------|

E------------------------------3-------0------0-------------------------------------|
B---------------6-5----------3------1-----1------------------------6-----3----------|
G---------3---------5-4-------------------------------2--2--2--------------4-2------|
D-----------------------------------------------------------------------------------|
A-----------------------------------------------------------------------------------|
E-----------------------------------------------------------------------------------|
                                                                                    |
E-5-------------1-0----------------------------------------1------------------------|
B---5---------3--------------3-------------1-------------1---------------3----------|
G-----6-----2--------------0-------------0-------------2---------------4-----------4|
D-------\-0--------------0-------------2-------------3---------------3--------------|
A-------------------\3-2--------\0-2-3--------\3-2-0----------0-0/-2-------\2-0-----|
E-------------------------------------------------------------------------------4---|

E----------------------------------|
B------------3---------------2-----|
G----1-2---------------------------|
D--2-------------------------------|
A----------------------------------|
E----------------------------------|
                                   |
E---4----------------5-------------|
B-5---5----------5-----5---5-------|
G-------4------7---7-----7---6~~---|
D----------------------------------|
A----------\0----------------------|
E----------------------------------|

                         Riff 3
E-----------------------------------------------------------------------------------|
B---------------------|---10p9----9-----------------------------10p9----9-----------|
G--Riff-2A-&-Riff-2B--|*-------10---10-9-7-10-9-7----9-7-------------10---10-9-7-10-|
D---------------------|*--------------------------10-----10-9~~---------------------|
A---------------------|-------------------------------------------------------------|
E-----------------------------------------------------------------------------------|

                      x2    Guitar Solo 3 (with Riff 3)
E-----------------------------------------------------------------------------------|
B--------/12-10-9--------|----------------------------------------------------------|
G-9-7-------------10~~--*|----------------------------------------------------------|
D-----10----------------*|----------------------------------------------------------|
A------------------------|----------------------------------------------------------|
E-----------------------------------------------------------------------------------|

.... under transcription

=======================
=TABLATURE EXPLANATION=
=======================

A.H. = Artificial Harmonic

pm..| = Palm mute

h = hammer on

p = pull off

/ = slide up

\ = slide down

~ = Vibrato

b() = Bend

x\ = Pick Slide

--------
--------
---12--- = Tremolo pick
----/---
----/---
----/---

---.---
--12--- = Staccato
-------
-------
-------

|     |
|     |
|*   *| = repeat from * to *
|*   *| 
|





Comments


Popular Narnia tabs & chords
Dangerous Game Tabs
Falling From The Throne Tabs
Heavenly Love Tabs
Living Water Tabs
Sign Of The Times Tabs


Song lyrics



↑ Back to top | Tablatures and chords are parodies/interpretations of the original songs. You may use it for private study, scholarship, research or language learning purposes only
© 2014 AZChords.com Contact us | Privacy policy | DMCA | Add/correct tabs | Request tabs | Top 50 tabs