>
 >
Sign Of The Times

Sign Of The Times Guitar Tabs

Narnia - Sign Of The Times chords, tabs, tablatures, lyrics

Guitar lessons | Add/correct | Request | Top 50 tabs Artists:  A B C D E F G H I J K L M N O P Q R S T U V W X Y Z 0-9

Sign Of The Times Guitar Tabs – Narnia

CD, Sheet music, Poster

Do you like Sign Of The Times? Share with your friends now
Tabs
  Band:Narnia
  CD:Awakening
  Copyright:
  ***Tune down 1/2 step.***


    INTRO:Keyboard

  e------------------------------------------------------------|
  B--------------7h8p7~5/15~13~15p13~12~11h12p11~8~7~5~7p5/15~~|
  G-9~4~5~4~~4~9~----------------------------------------------|
  D------------------------------------------------------------|
  A------------------------------------------------------------|
  E------------------------------------------------------------|

  e-----------------------------------------19~~~~|
  B-13~15p13~12~11h12p11~8~7~5~7p5~~~~17~~~~------|
  G-----------------------------------------------|
  D-----------------------------------------------|
  A-----------------------------------------------|
  E-----------------------------------------------|


    Riff1
  e------------------------------------|
  B------------------------------------|Play 2x's
  G------------------------------------|
  D-7/9-9-7-9-\-22-2-2-7/9-9-7-9-5~----|
  A-5/7-7-5-7-\-22-2-2-5/7-7-5-7-3~-5~-|
  E-------------00-0-0--------------3~-|


    VERSE:Riff 2
  e---------------------|
  B---------------------|Play this 8x's for verse
  G---------------------|with various slides for
  D---------------------|effect(listen to CD)
  A-5h7-7~5-7-----------|
  E-0-0---0---00-00-0000|



    PRE-CHORUS:
     In a world of darkness   in this.........
  e----------------------------------------------------|
  B----------------------------------------------------|
  G-----------------4--------play w/fill 1-------------|
  D-2---------------4--------2-----4----5----7----5--4-|
  A-2---------------2--------0-----2----3----5----3--2-|
  E-0--------------------------------------------------|

  e----------------------------------------------------|
  B----------------------------------------------------|
  G-----------------4--------play w/fill 2-------------|
  D-2---------------4--------2-----4----5----7----5--4-|
  A-2---------------2--------0-----2----3----5----3--2-|
  E-0--------------------------------------------------|


    fill 1
  e------------------------------------------------|
  B------------------------------------------------|
  G-11h12~~14~~15~~17~~19-15~~14~~14b15-12\11~~----|
  D------------------------------------------------|
  A------------------------------------------------|
  E--------------------------------------------0---|

  e---------------------------------|
  B---------------------------------|
  G-11h12~~14~~15-14~~12p11-12~~11~~|
  D---------------------------------|
  A---------------------------------|
  E---------------------------------|


    CHORUS:
  e----------------------------------------------------------|
  B----------------------------------------------------------|
  G----------------------------------------------------------|
  D-2h4-pm-4-pm-------2h4-pm-4-pm..........--2h4-pm-4-pm-----|
  A-2h4-44-4-44-5-5---2h4-44-4-44-5-3--5-3---2h4-44-4-44-5-5-|
  E-------------3-3------------------5----5--------------3-3-|

  e-----------------------------|
  B-----------------------------|Play 2x's for chorus.
  G-----------------------------|
  D-2h4-pm-4-pm................-|
  A-2h4-44-4-44-555-555-555-555-|
  E-------------333-333-333-333-|

  Play Riff 1 then verse then pre chorus and chorus.
  Play Riff 1 and Riff 2 for first part of solo section.
  Most of the rest of solo is played with CJ Grimmark doing a sort
  of duo guitar thing,but you can play this along with it.I can
  play most of solo but won't tab it yet as it is time consuming
  unless I get some requests.It could happen.
    Bass Riff Play 2x's
  e------------------------------------------------------------------|
  B------------------------------------------------------------------|
  G------------------------------------------------------------------|
  D------------------------------------------------------------------|
  A-----------------555555555555555533333333333333332222222222222222-|
  E-++++++++++++++++-------------------------------------------------|

  e-----------------------------------------|
  B----------------------pm.......-----pm..-|Guitar solo ends and
  G-9~~7~~5~~4~~9~~7~~5~~4444-4444-5~~~444--|keyboard solo starts.
  D-9~~7~~5~~4~~9~~7~~5~~4444-4444-5~~~444--|
  A-7~~5~~3~~2~~7~~5~~3~~2222-2222-3~~~222--|
  E-----------------------------------------|

  e-------0~~~----0~~~-|
  B-------0~~~----0~~~-|Play 2x's
  G-7/9~~~9~~~7~~~7~~~-|
  D-7/9~~~~~~~7~~~~~~~-|
  A-5/7~~~~~~~5~~~~~~~-|
  E--------------------|


   BRIDGE:Play 12x's w/fill 4 last 4x's
  e-------------------|
  B-------------------|
  G-9-----9----7----5-|
  D-9-----9----7----5-|
  A-7--77-7-77-5-55-3-|
  E-------------------|


   fill 4
  e-------------------------------------------------|
  B-------------------------------------------------|
  G-14-14-14-14-12-12-12-12-11-11-11-11-10-10-10-10-|
  D-------------------------------------------------|
  A-12-12-12-12-10-10-10-10--9--9--9--9--8--8--8--8-|
  E-------------------------------------------------|

   After bridge play riff 1,pre-chorus then ending




  ENDING:
  e-------------------------------------------------|
  B-------------------------------------------------|
  G-------------------------------------------------|
  D-2h4-pm-4-pm-5-5-2222-2222-5~~222-7--------------|
  A-2h4-44-4-44-5-5-2222-2222-3~~222-5-7~~5~~3\2/7~~|
  E-------------3-3------------------------------0~~|

  Any Q's or com's email Ed at





Comments


Popular Narnia tabs & chords
Dangerous Game Tabs
Falling From The Throne Tabs
Heavenly Love Tabs
Living Water Tabs
The Return Of Aslan Tabs


Song lyrics



↑ Back to top | Tablatures and chords are parodies/interpretations of the original songs. You may use it for private study, scholarship, research or language learning purposes only
© 2014 AZChords.com Contact us | Privacy policy | DMCA | Add/correct tabs | Request tabs | Top 50 tabs