>
 >
Living Water

Living Water Guitar Tabs

Narnia - Living Water chords, tabs, tablatures, lyrics

Guitar lessons | Add/correct | Request | Top 50 tabs Artists:  A B C D E F G H I J K L M N O P Q R S T U V W X Y Z 0-9

Living Water Guitar Tabs – Narnia

CD, Sheet music, Poster

Do you like Living Water? Share with your friends now
Tabs
**************************************************************
**************************************************************
 Music and Words By: CJ.Grimmark/C.Liljegren

Day tabbed: 3.1.2001

Please mail me if you can find mistakes!

-----------------------------------------

 Tune Down 1/2 Step!

E-----------------------------------------------------------------------------------|
B-----------------|-----------------------------------------------------------------|
G--Intro-(Drums)--|-----------------------------5--5~---------------------------5-/-|
D----(-2-sec-)----|-----------------------------3--3~---------------------------3-/-|
A-----------------|----2-3-2-------2-3-2---------------2-3-2-------2-3-2------------|
E--------------------5-------5-3-5-------5-3-5---------------5-3-5-------5-3-5------|
                    pm.........................|      pm......................|

E-----------------------------------------------------------------------------------|
B-----------------------------------------------------------------------------------|
G-7~--------------------------7-\-5~------------------------------------------------|
D-5~--------------------------5-\-3~------------------------------------------------|
A----2-3-2-------2-3-2----------------2-3-2-------2-/-8-7-5---7---------2-3-2-------|
E----------5-3-5-------5-3-5----------------5-3-5-----------8---8-7-5~--------5-3-5-|
    pm.......................|       pm.............|                  pm...........

E-----------------------------------------------------------------------------------|
B-----------------------------------------------------------------------------------|
G--------------5--5~---------------------------5-/-7~---------------------------7-\-|
D--------------3--3~---------------------------3-/-5~---------------------------5-\-|
A-2-3-2---------------2-3-2-------2-3-2----------------2-3-2-------2-3-2------------|
E-------5-3-5---------------5-3-5-------5-3-5----------------5-3-5-------5-3-5------|
 ............|       pm......................|        pm......................|

                                end Intro     Verse 1
E------------------------------------------||---------------------------------------|
B------------------------------------------||---------------------------------------|
G5~----------------------------------------||*--------------------------------------|
D3~-----------------------------------7~---||*--------------------------------------|
A----2-3-2-------2-/-7-8-5-8---8---8--7~---||-----2-3-2-------2-3-2---------------2-|
E----------5-3-5-------------8---7----5~---||---5-------5-3-5-------5-3-5-5-5-5~----|
    pm............|                            pm............................|   pm.
                                                                ____________________
                                                               |1.
E--------------------------------------------------------------|--------------------|
B--------------------------------------------------------------|--------------------|
G--------------------------------------------------------------|----------------3--3|
D--------------------------------------------------------------|----------------3--3|
A-3-2-------2-3-2---------------2-3-2-------2-3-2--------------|-2-3-2-------2--1--1|
E-----5-3-5-------5-3-5-5-5-5~--------5-3-5-------5-3-5-5-5-5~-|-------5-3-5--------|
 ..........................|   pm..........................|   pm.............|
 ____________ ____________________________________
             |2.                                  |  Bridge
E------------|------------------------------------||--------------------------------|
B------------|------------------------------------||--------------------------------|
G----3-3-3--*|--7--7----7-7-7---------------------||-------9~---\-7-7-7-7-------9~--|
D----3-3-3--*|--7--7----7-7-7------3----3---3-3---||-------9~---\-7-7-7-7-------9~--|
A-1--1-1-1---|--5--5--5-5-5-5------3----3---3-3---||--7-7--7~---\-5-5-5-5---7-7-7~--|
E------------|-----------------\-1-1--1-1---1-1---||--7-7--7~---------------7-7-7~--|
 pm                  pm         pm   pm              pm..|                 pm..|

                  Chorus  (*=play first time only)
E-----------------------------------------------------------------------------------|
B---6---7-/-9~--|-------------------------------------------------------------------|
G---5---7-/-7~--|*-----------------------------5--5~---------------------------5-/-7|
D---3---4-/-6~--|*-----------------------------3--3~---------------------------3-/-5|
A---3-----------|---*-2-3-2-------2-3-2---------------2-3-2-------2-3-2-------------|
E-------------------5-------5-3-5-------5-3-5---------------5-3-5-------5-3-5-------|
                   pm........................|       pm......................|
                                                      ____________________ _________
                                                     |1.                  |2.
E----------------------------------------------------|--------------------|---------|
B----------------------------------------------------|--------------------|---------|
G~---------------------------7-\-5~------------------|-------------------*|---------|
D~---------------------------5-\-3~------------------|-------------------*|---------|
A---2-3-2-------2-3-2----------------2-3-5-------2-/-|-8-7-5---7----------|-7-8-5-8-|
E---------5-3-5-------5-3-5----------------5-3-5-----|-------8---8-7-5~~--|---------|
  pm.......................|        pm............|
 ________________
                 |                                    Guitar Solo 1
E----------------||------------------------------------12-13-12-10------------------|
B----------------||-----------|----------|----------|--------------13-12-10---------|
G----------------||--Verse-2--|--Bridge--|--Chorus--|-----------------------13-10-9-|
D----------7~----||-----------|----------|----------|-------------------------------|
A---8---8--7~----||-----------|----------|----------|-------------------------------|
E-8---7----5~----||-----------------------------------------------------------------|

E----------------10-12-13-12-10---------------------------------10-12-13-12-10------|
B-------10-12-13----------------13-12-10---------------10-12-13----------------13-12|
G-10-13----------------------------------13-10-9-10-13------------------------------|
D-----------------------------------------------------------------------------------|
A-----------------------------------------------------------------------------------|
E-----------------------------------------------------------------------------------|

E-----------------------------------------------------------------------------------|
B-10------------------------------------------------------------------------------15|
G----13-10-9-------------------------------------------------13-14-16-13-14-16/17---|
D------------12-10-9------------------------------------14~~------------------------|
A--------------------12-11~~--------/-11-12-14-11-12-14-----------------------------|
E-----------------------------12~~--------------------------------------------------|

E-------------16h19p16----------\16p13----------\13p10----------10h13-/-22b(24)~--24|
B-17-18-17-18----------18----18--------15----15--------12----12---------------------|
G-------------------------19--------------16--------------13------------------------|
D-----------------------------------------------------------------------------------|
A-----------------------------------------------------------------------------------|
E-----------------------------------------------------------------------------------|

E~~--\-16~-16-16--16-13-12-------12----------------------------------------------12-|
B--------------------------15-13----15-13-12-15-13-12----------12-13-15-12-13-15----|
G-----------------------------------------------------14-13-14----------------------|
D-----------------------------------------------------------------------------------|
A-----------------------------------------------------------------------------------|
E-----------------------------------------------------------------------------------|

E-------12-/13-12-------------------------------------------------------------------|
B-13-15-----------15-13-12-\-10-9---------9p6-------6h9-/-12p9----------9h12-/15p12-|
G---------------------------------10-9~-------7---7------------10----10-------------|
D-----------------------------------------------9-----------------12----------------|
A-----------------------------------------------------------------------------------|
E-----------------------------------------------------------------------------------|

                                                                             Whammy.
E---------------------------------------/20p19p17\16-/17h19h20p19p17\16h17h19-/24p22|
B----------12h15-/18p15----------15h18----------------------------------------------|
G-13----13--------------16----16----------------------------------------------------|
D----15--------------------18-------------------------------------------------------|
A-----------------------------------------------------------------------------------|
E-----------------------------------------------------------------------------------|

 pedal.............................................|   Harmony Solo
Ep20----22p20----------------20h22h24-/-25h27h29~~----------------------------------|
B----24-------24p22p21h22p24-------------------------|---/10---10-12-13-12-10-13-12-|
G----------------------------------------------------|*------9----------------------|
D----------------------------------------------------|*-----------------------------|
A----------------------------------------------------|------------------------------|
E-----------------------------------------------------------------------------------|

E---------------------------------------------------------------------9----9-12-/17-|
B-10------------------/10---10-12-13-12-10-13-12-10---------------------10----------|
G----13-10-9--------------9-------------------------13-10-9-------------------------|
D------------12-10-9----------------------------------------12-10-9-----------------|
A-----------------------------------------------------------------------------------|
E-----------------------------------------------------------------------------------|

E-15-13----13----------------13----\-7---7-10-/15-13-12----12----------------12----\|
B-------17----17-15-14-15-17----15-----8----------------15----15-13-12-13-15----13--|
G-----------------------------------------------------------------------------------|
D-----------------------------------------------------------------------------------|
A-----------------------------------------------------------------------------------|
E-----------------------------------------------------------------------------------|

                                                                                 x2
E5---5-8-/13-12-10----10-12-8-12----12----12------------12-10-----------------------|
B--6---------------13------------12----10----\-9---9-12-------13-12-13-12-10\9-10~--|
G------------------------------------------------9---------------------------------*|
D----------------------------------------------------------------------------------*|
A-----------------------------------------------------------------------------------|
E-----------------------------------------------------------------------------------|

  Guitar Solo 2
E--17p12----------12h17p12h17p12----------12h17p12h17p12----------12h17p12h17p12----|
B--------13----13----------------13----13----------------13----13----------------13-|
G-----------14----------------------14----------------------14----------------------|
D-----------------------------------------------------------------------------------|
A-----------------------------------------------------------------------------------|
E-----------------------------------------------------------------------------------|

E-------\8h12p8h12p8---------8h12p8h12p8---------8h12p8h12p8---------8h12p8h12p8----|
B----13--------------10---10-------------10---10-------------10---10-------------10-|
G-14--------------------9-------------------9-------------------9-------------------|
D-----------------------------------------------------------------------------------|
A-----------------------------------------------------------------------------------|
E-----------------------------------------------------------------------------------|

E------8h12-\8p5-------5h8-/11p8----------8h11-/14p11----------11h14-/17p14---------|
B---10-----------7---7-----------10----10-------------13----13--------------16----16|
G-9----------------8----------------11-------------------14--------------------17---|
D-----------------------------------------------------------------------------------|
A-----------------------------------------------------------------------------------|
E-----------------------------------------------------------------------------------|

                  Chorus (2) (with Solo 3nd time)
E-/17~--14-16~---(-17~~---\-)-------------------------------------------------------|
B---------------|---(*=play-first-time-only)----------------------------------------|
G---------------|*-----------------------------5--5~---------------------------5-/-7|
D---------------|*-----------------------------3--3~---------------------------3-/-5|
A---------------|---*-2-3-2-------2-3-2---------------2-3-2-------2-3-2-------------|
E-------------------5-------5-3-5-------5-3-5---------------5-3-5-------5-3-5-------|
                   pm........................|       pm......................|
                                                    _____________________ __________
                                                   |1.3.                 |2.
E--------------------------------------------------|---------------------|----------|
B--------------------------------------------------|---------------------|----------|
G~---------------------------7-\-5~----------------|--------------------*|----------|
D~---------------------------5-\-3~----------------|--------------------*|----------|
A---2-3-2-------2-3-2----------------2-3-2-------2-|-/8-7-5---7----------|-7-8-5-8--|
E---------5-3-5-------5-3-5----------------5-3-5---|--------8---8-7-5~---|---------8|
   pm......................|        pm............|
 ____________ ______________________________________________________________________
             |4.               Two Guitars:                            with Fill 1
E------------|----------------------------------------------------------------------|
B------------|--------------------10-8------8---------------------------------------|
G-----------*|-------------------------10-9---10-9-7-10-9-7----9-7------7-----------|
D-----------*|---------------------7-5------5---------------10-----10-9---10-9-7-10-|
A-8---8------|-/7-8-5-8---8---8---------8-7----8-7-5--8-7-5----7-5------5-----------|
E---8---5~---|----------8---7--------------------------------8------8-7----8-7-5--8-|
 ____________________________________________
                                             |
E-------------11~-\---12~-\---17~~----\------||
B--------------------------------------------||
G--------------8~-\----9~-\----5~~----\------|| end
D-9-7\6-7~-\---9~-\----9~-\----7~~----\------||
A--------------6~-\----7~-\----7~~----\------||
E-7-5\4-5~-\-------------------5~~----\------||

--------------------------------------------------------------------------------------

  Fill 1 (Two Guitars)
E--17-15-13------------------------------------||
B--18-17-15-17-15-13-/17-15-13\12----13~~--\---||
G-----------17-16-14-/17-16-14\13-13-14~~--\---|| end
D---------------------------------14-----------||
A----------------------------------------------||
E----------------------------------------------||

  Rhythm Guitar during Guitar Solo 1                       x3
E-----------------------------------------------------------------------------------|
B-------------------------------------------------------------|---------------------|
G*---------------------------------------------------/-7--7--*|---------------------|
D*-----------------------3--3------------------------/-7--7--*|---------------------|
A------------------------3--3------------------------/-5--5---|---------------------|
E---0-0-0-0-0-0-0-0-0-0--1--1-\-0-0-0-0-0-0-0-0-0-0--------------0-0-0-0-0-0-0-0-0-0|
   pm..................|       pm...................|           pm..................

E----------------------------------------------------||
B----------------------------------------------------||
G----------------------------------------------------|| end
D----------3--3-\------------------------------------||
A----------3--3-\------------------------------------||
E-0-0-0-0--1--1-\-0-0-0-0-0-0-0-0-0-0-0-0-0-0-0-0-0--||
 ........|       pm.................................|

  Rhythm Guitar during Harmony Solo
E-----------------------------------------------------------------------------------|
B-----------------------------------------------------------------------------------|
G*----------------------------------------------------------------------------------|
D*----------------------------------------------------------------------------------|
A--0-0-0-0-0-0-0-0-0------------------/0-0-0-0-0-0-0-0-0------------------/0-0-0-0-4|
E--------------------\0-0-0-0-0-0-0-0--------------------\0-0-0-0-0-0-0-0-----------|
  pm................................................................................

E-----------------------------------------------------------------------------------|
B-----------------------------------------------------------------------------------|
G-----------------------------------------------------------------------------------|
D-----------------------------------------------------------------------------------|
A-4-4-4-/5-5-5-5-8-8-8-8----------2-2-2-2/3-3-3-3-------------------0-0-0-0-/2-2-2-2|
E------------------------\3-3-3-3-----------------\0-0-0-0-/1-1-1-1-----------------|
 ...................................................................................

                                            x2
E---------------------------------------------||
B---------------------------------------------||
G--------------------------------------------*|| end
D--------------------------------------------*||
A-2-2-2-2------------------/0-0-0-0-0-0-0-0---||
E---------\0-0-0-0-4-4-4-4--------------------||
 ..........................................|

  Rhythm Guitar during Guitar Solo 2
E-------------------------------------||
B---------1~--------------------------||
G---2~----2~----8~----9~--------------|| end
D---3~----2~----9~----9~---\-6~-------||
A---3~----0~----6~----7~---\-7~-------||
E---1~---------------------\-4~-------||

--------------------------------------------------------------------------------------

=======================
=TABLATURE EXPLANATION=
=======================

A.H. = Artificial Harmonic

pm..| = Palm mute

h = hammer on

p = pull off

/ = slide up

\ = slide down

~ = Vibrato

b() = Bend

x\ = Pick Slide

--------
--------
---12--- = Tremolo pick
----/---
----/---
----/---

---.---
--12--- = Staccato
-------
-------
-------

|     |
|     |
|*   *| = repeat from * to *
|*   *| 
|     |

LYRICS:
****************************************************************************

I've been running all my life
To find some peace of mind
Searching for the treasure everywhere
I met Jesus Christ
He's the son of god
He's the one who healed my broken heart

I breathe your spirit
I breathe your love

LIVING WATER, FROM THE FATHER
FILL MY BODY, NOW I'M MOVING ON
LIVING WATER, FROM THE FATHER
FILL MY BODY, NOW I'M MOVING ON

I've cried so many tears 
For so many years
Looking for real love in my life
I met the holy one
Salvation through God's only son
Eternal life for the world today

I breathe your spirit
I breathe your love

LIVING WATER, FROM THE FATHER
FILL MY BODY, NOW I'M MOVING ON
LIVING WATER, FROM THE FATHER
FILL MY BODY, NOW I'M MOVING ON

LIVING WATER, FROM THE FATHER
FILL MY BODY, NOW I'M MOVING ON
LIVING WATER, FROM THE FATHER
FILL MY BODY, NOW I'M MOVING ON

***************************************************************************





Comments


Popular Narnia tabs & chords
Dangerous Game Tabs
Falling From The Throne Tabs
Heavenly Love Tabs
Sign Of The Times Tabs
The Return Of Aslan Tabs


Song lyrics



↑ Back to top | Tablatures and chords are parodies/interpretations of the original songs. You may use it for private study, scholarship, research or language learning purposes only
© 2014 AZChords.com Contact us | Privacy policy | DMCA | Add/correct tabs | Request tabs | Top 50 tabs