» » »

Narnia, Heavenly Love Tabs (ver.1)

Artists:  A B C D E F G H I J K L M N O P Q R S T U V W X Y Z # 

Heavenly Love Tabs (ver.1)

Narnia Tabs
 Rating:
4/5 (4 votes)
Heavenly Love lessons Tabs too difficult? Try these video lessons and learn fast
1
                ================================================================================
         Title : Heavenly Love
        Artist : Narnia
================================================================================

I've discovered Narnia only few months ago, but I already love them!
"Heavenly Love" is a great power ballad in my opinion, so I've decided
to tab it: it's almost complete, only the distorted guitar solos
are missing, but I'm working on them as well.

have any problem to import it (CTRL+I).


Legend
------

 h  = hammer-on
 p  = pull-off
 ~  = vibrato


    Acoustic Arpeggio (to be played under the intro solo and under 
verses)

Eb|-------1-0--------------0----0-----|-------1-0------------5-----|---
Bb|-----3-----1---3------3--------1---|-----3-----1---3----3-------|---
Gb|---2---------0------3------------0-|---2---------0----3---------|---
Db|-0---------------------------------|-0--------------------------|---
Ab|-----------------------------------|----------------------------|---
Eb|-----------------------------------|----------------------------|---

    You may play the arpeggio this way as well

Eb|-----------------------------------|------------------------5---|---
Bb|-------6-5--------------5----5-----|-------6-5------------------|---
Gb|-----7-----5---7------7--------5---|-----7-----5---7------7-----|---
Db|---7---------5------8------------5-|---7---------5------8-------|---
Ab|-5---------------------------------|-5--------------------------|---
Eb|-----------------------------------|----------------------------|---



    Intro solo (acoustic guitar)

Eb|-------5----------------------------------10--12--13-12---10--------
Bb|-5h6h8-----8--6--5--6p5----------------10---------------------10~---
Gb|------------------------7-6-7~------10------------------------------
Db|---------------------------------12---------------------------------
Ab|--------------------------------------------------------------------
Eb|--------------------------------------------------------------------

Eb|-------------------------------------------------|-----------------|-
Bb|---10-11-10----10-11-10~----10-9-10--------------|-----------------|-
Gb|------------12----------------------9-12-10------|-----------------|-
Db|--------------------------------------------12~--|-----------------|-
Ab|-------------------------------------------------|-----------------|-
Eb|-------------------------------------------------|-----------------|-

    Arpeggio Variation (not quite sure about this, there are at least
    another guitar and a keyboard playing an arpeggio too)

Eb|-------------------------------------------------------------------|-
Bb|---------0h1-------------0h1-------------0h1-------------0h1-------|-
Gb|-----2---2---2-------2---2---2-------2---2---2-------2---2---2-----|-
Db|---2---2-------2---2---2-------2---3---3-------3---3---3-------3---|-
Ab|-0---------------0---------------0---------------0-----------------|-
Eb|-------------------------------------------------------------------|-

Eb|---------------------------------------------------------------0~--|-
Bb|---------0h1-------------0h1-------------0h1-------------0h1-------|-
Gb|-----2---2---2-------2---2---2-------2---2---2-------2---2---2-----|-
Db|---2---2-------2---2---2-------2---3---3-------3---3---3-----------|-
Ab|-0---------------0---------------0---------------0-----------------|-
Eb|-------------------------------------------------------------------|-

    On the second verse, there's a small lick played by the lead 
acoustic guitar

Eb|-------------------------|-----------------------------------------|-
Bb|-8-10-8------------------|-----------------------------------------|-
Gb|--------10-9-7-6---------|-----------------------------------------|-
Db|-----------------8-7~----|-----------------------------------------|-
Ab|-------------------------|-----------------------------------------|-
Eb|-------------------------|-----------------------------------------|-

    Chorus

Eb|-------------------------|----------------------|------------------|-
Bb|-------------------------|----------------------|------------------|-
Gb|-------------------------|----------------------|-7----6-----------|-
Db|-12-12----10--8----8--7--|-------5~---------5~--|-7----7-----------|-
Ab|-12-12----10--8----8--8--|----------------------|-7----7-----------|-
Eb|-10-10-----8--6----6--5--|-3--3------3--3-3-----|-5----5-----------|-


    After the guitar solo, the chorus gets one tone higher (Dm--->Em)
Eb|----------------------------|----------------------|--------------|-
Bb|----------------------------|----------------------|--------------|-
Gb|----------------------------|----------------------|-9----8-------|-
Db|-14-14----12--10----10---9--|-------7~---------7~--|-9----9-------|-
Ab|-14-14----12--10----10--10--|----------------------|-9----9-------|-
Eb|-12-12----10---8-----8---7--|-5--5------5--5-5-----|-7----7-------|-

    The ending arpeggio is the same as the beginning, but one tone 
higher
    (just as in the chorus)

Eb|-------3-2--------------2----2-----|-------3-2------------7-----|---
Bb|-----5-----3---5------5--------3---|-----5-----3---5----5-------|---
Gb|---4---------2------5------------2-|---4---------2----5---------|---
Db|-2---------------------------------|-2--------------------------|---
Ab|-----------------------------------|----------------------------|---
Eb|-----------------------------------|----------------------------|---

    As in the beginning, you may play the arpeggio this way as well
Eb|------------------------------------|-------------------------7---|-
Bb|-------8-7---------------7----7-----|-------8-7-------------------|-
Gb|-----9-----7---9-------9--------7---|-----9-----7---9-------9-----|-
Db|---9---------7------10------------7-|---9---------7------10-------|-
Ab|-7----------------------------------|-7---------------------------|-
Eb|------------------------------------|-----------------------------|-

    This is the ending acoustic guitar solo
Eb|--------7------------------------7--8--10--8h10p8p7~-----0---2---3---
Bb|-7h8h10----10--8--7--8~---7h8h10-----------------------0---0---0---0-
Gb|---------------------------------------------------------------------
Db|---------------------------------------------------------------------
Ab|---------------------------------------------------------------------
Eb|---------------------------------------------------------------------

Eb|-7~----7-8-5-8---8---8-----------5---7------|------------------------
Bb|---------------8---7---5~-7--8----------7~--|------------------------
Gb|--------------------------------------------|------------------------
Db|--------------------------------------------|------------------------
Ab|--------------------------------------------|------------------------
Eb|--------------------------------------------|------------------------

    The song ends by this slow arpeggio
Eb|----------3--2--------2--------3~---|
Bb|-------5--------3------------5~-----|
Gb|----4--------------2-------4~-------|
Db|-2----------------------------------|
Ab|------------------------------------|
Eb|------------------------------------|

    or if you prefer
Eb|------------------------------------|
Bb|----------8--7--------7--------8~---|
Gb|-------9--------7------------9~-----|
Db|----9--------------7-------9~-------|
Ab|-7----------------------------------|
Eb|------------------------------------|
            
Submit corrections

comments powered by Disqus
↑ Back to top | Narnia Tabs for Heavenly Love. Lyrics for acoustic guitar and electric guitar. 1 Tablatures and chords are parodies/interpretations of the original songs. You may use it for private study, scholarship, research or language learning purposes only