>
 >
Dangerous Game

Dangerous Game Guitar Tabs

Narnia - Dangerous Game chords, tabs, tablatures, lyrics

Guitar lessons | Add/correct | Request | Top 50 tabs Artists:  A B C D E F G H I J K L M N O P Q R S T U V W X Y Z 0-9

Dangerous Game Guitar Tabs – Narnia

CD, Sheet music, Poster

Do you like Dangerous Game? Share with your friends now
Tabs
****************************************************************
****************************************************************
 Music and Words By: CJ.Grimmark/C.Liljegren

Day tabbed: 8, 7.2001

Please mail me if you can find mistakes!

-----------------------------------------

 Tune Down 1/2 Step!

E-----------------------------------------------------------------------------------|
B------------------|----------------------------------------------------------------|
G--Keyboard-Intro--|*---------------------------------------------------------------|
D------(13-sec)----|*--7p5-----5----------------------------------------------------|
A------------------|-------7p5---7-5-3\0-0-0-0-0-0-0-0-0-0-0-0-0-0-0-0-0-0-0-0-0-0-0|
E-----------------------------------------------------------------------------------|
                                      pm............................................

E-----------------------------------------------------------------------------------|
B-----------------------------------------------------------------------------------|
G-----------------------------------------------------------------------------------|
D-----------------------------------------------------------------------------------|
A-0-0-0-0-0-0-0-0-0-----------------------------------------------------------------|
E-------------------\1-1-1-1-1-1-1-1-1-1-1-1-1-1-1-1-1-1-1-1-1-1-1-1-1-1-1-1-1-1-1-1|
 ...................................................................................|

E-----------------------------------------------------------------------------------|
B-----------------------------------------------------------------------------------|
G-----------------------------------------------------------------------------------|
D-----------------------------------------------------------------------------------|
A-/5-5-5-5-5-5-5-5-5-5-5-5-5-5-5-5h7-7-7-7-7-7-7-7-7-7-7-7-7-7-7-7------------------|
E------------------------------------------------------------------\5-5-5-5-5-5-5-5-|
  pm............................| pm................................................

                                      end Intro    Verse 1
E-----------------------------------------------||----------------------------------|
B-----------------------------------------------||----------------------------------|
G----------------------------------------------*||*---------------------------------|
D----------------------------------------------*||*---------------------------------|
A-----------------------------------------------||---7-7-7-7-7-7-7-7-7-7-7-7-7-7-7-7|
E-5-5-5-5-5-5-5-5-5-5-5-5-5-5-5-5-5-5-5-5-5-5---||----------------------------------|
 ............................................|      pm..............................

E-----------------------------------------------------------------------------------|
B-----------------------------------------------------------------------------------|
G-------------------------------------------------------------------------------7h9-|
D------------------------------------------------------------------------/6h7h9-----|
A-7-7-7-7-7-7-7-7-7-7-7-7-5-7-8-5-/7-7-7-7-7-7-7-7-7-7-7-7-7-7-7-7\5h7h8------------|
E-----------------------------------------------------------------------------------|
 .................................................................|

                   x2    Bridge                                    Chorus
E-----------------------------------------------------------------------------------|
B----------------------|-----------------------------------------|------------------|
Gh10-------7h9h10p9---*|-----------------------------------------|------------------|
D----6h7h9------------*|---3-----4-----5---/5-2-----2-------2\---|------------------|
A----------------------|---3-----5-----5--------5-3---5-3-2------|--0-0-0-0-0-0-0-0-|
E--------------------------1-----2-----3--------------------------------------------|
                                                                  pm................

E-----------------------------------------------------------------------------------|
B-----------------------------------------------------------------------------------|
G-----------------------------------------------------------------------------------|
D-----------------------------------------------------------------------------------|
A-0-0-0-0-0-0-0-0-------------------------------------------------------------------|
E-----------------\1-1-1-1-1-1-1-1-1-1-1-1-1-1-1-/3-3-3-3-3-3-3-3-3-3-3-3-3-3-3-3h4-|
 ...................................................................................
 
E-----------------------------------------------------------------------------------|
B-----------------------------------------------------------------------------------|
G-----------------------------------------------------------------------------------|
D-----------------------------------------------------------------------------------|
A-------------------------------/-0-0-0-0-0-0-0-0-0-0-0-0-0-0-0-0-------------------|
E-4-4-4-4-4-4-4-4-4-4-4-4-4-4-4-----------------------------------\-1-1-1-1-1-1-1-1-|
 ...................................................................................

E-----------------------------------------------------------------------------------|
B-----------------------------------------------------------------------------------|
G-----------------------------------------------------------------------------------|
D-----------------------------------------------------------------------------------|
A-----------------------------------------------------------------------------------|
E-1-1-1-1-1-1-1-1-/3-3-3-3-3-3-3-3-3-3-3-3-3-3-3-\-0-0-0-0-0-0-0-0-0-0-0-0-0-0-0-0--|
 .................................................................................|

E-----------------------------------------------------------------------------------|
B-------10---9----------------------------------------------------------------------|
G--7~----9---9-------------------------------------------------------------------/-7|
D--7~----9---9-------------------------------------------------------------------/-7|
A--5~----7---7----0-0-0-0-0-0-0-0-0-0-0-0-0-0-0-0-0-0-0-0-0-0-0-0-0-0-0-0-0-0-0--/-5|
E-----------------------------------------------------------------------------------|
                 pm............................................................|

E-----------------------------------------------------------------------------------|
B---10---9----------------------------------------|-----------|----------|----------|
G----9---9-----------------------------------2~~--|--Verse-2--|--Bridge--|--Chorus--|
D----9---9-----------------------------------2~~--|-----------|----------|----------|
A----7---7----0-0-0-0-0-0-0-0-0-0-0-0-0-0-0--0~~--|-----------|----------|----------|
E-----------------------------------------------------------------------------------|
            pm..............................|

  Interlude
E--16p13--------------------------------------------------------/-17p12----------12p|
B--------15----/18p15----------15p12----------12/15h18p15---------------13----13----|
G*----------16--------16----16-------13----13-------------16---------------14-------|
D*-----------------------18-------------15-------------------18---------------------|
A-----------------------------------------------------------------------------------|
E-----------------------------------------------------------------------------------|

Ep8---------8p5-------5/8h12p8---------8/10p7--------7-/10h13p10----------10-/13h16p|
B---10---10-----5---5----------10---10--------9----9-------------12----12-----------|
G------9----------5---------------9-------------10------------------13--------------|
D-----------------------------------------------------------------------------------|
A-----------------------------------------------------------------------------------|
E-----------------------------------------------------------------------------------|
                                            _______________________________ ________
                                           |1.                             |2.
E13----------13p10----------10h13/17p12----|----------------------12h17~---|--------|
B---15----15-------12----12-------------13-|-------------------13----------|-----13-|
G------16-------------13-------------------|-14-------------14------------*|--14----|
D------------------------------------------|----14-------14---------------*|--------|
A------------------------------------------|-------15p12-------------------|--------|
E------------------------------------------|-------------------------------|--------|

 ___________________________________________________________________ 
                  T     T      T        T        T        T         |  Guitar Solo 1
E-12h17p12h17p12-19p12h19p12-/20p17p12-19p17p12-20p17p12-19p17p12---||--------------|
B-------------------------------------------------------------------||--/17-18-17-15|
G-------------------------------------------------------------------||--------------|
D-------------------------------------------------------------------||--------------|
A-------------------------------------------------------------------||--------------|
E-------------------------------------------------------------------||--------------|

E-----------------------------------------------------------------------------------|
B-----------------------------------------------------------------------------------|
G-17-16-14\13----------13-14-16-14-16-----------------------------------------------|
D-------------15-14-15----------------15-14-12-15-14-12-----------------------------|
A-------------------------------------------------------15-14-12-15-14-12-11--------|
E----------------------------------------------------------------------------\13-12-|

E-----------------------------------------------------------------------------------|
B-----------------------------------------------------------------------------13----|
G----------------------------------------------------------13-14-16-13--14-16----13-|
D----------------------------------------12-14-15-12-14-15-----------/--------------|
A-------------------11-12-14-11-12-14-15-----------------------------/--------------|
E-10-12-13-10-12-13--------------------------------------------------/--------------|

E----10h13/16h19p16----------\16p13----------\13p10----------\10p7------------------|
B-12----------------18----18--------15----15--------12----12-------9----9-----------|
G----------------------19--------------16--------------13------------10----9~~------|
D-----------------------------------------------------------------------------------|
A-----------------------------------------------------------------------------------|
E-------------------------------------------------------------------------------\10-|
                                                                               pm...

E-------------------------------------------------------------------13-/19p16-------|
B----------------------------------------------------------13-15-17-----------18----|
G----------------------------------------13-14-16-13-14-16-----------------------19-|
D----------------------12-14-15-12-14-15--------------------------------------------|
A----11-12-14-11-12-14--------------------------------------------------------------|
E-12--------------------------------------------------------------------------------|
 .......................................|

E----\16p13----------\13p10----------\10p7--------\7p4------------4-h-7-p-4-------4-|
B-18--------15----15--------12----12-------9----9------6--------6-----------6---6---|
G--------------16--------------13------------10----------7p4-/7---------------7-----|
D-----------------------------------------------------------------------------------|
A-----------------------------------------------------------------------------------|
E-----------------------------------------------------------------------------------|

                                                                   Harmony Solo
E/7-h-10-p-7--------7-/10-h-13-p-10----------10h13-/-17b(19)~~----------------------|
B------------9----9-----------------12----12---------------------|------------------|
G--------------10----------------------13------------------------|------------------|
D----------------------------------------------------------------|------------------|
A----------------------------------------------------------------|------------------|
E-----------------------------------------------------------------------------------|

... under construction





Comments


Popular Narnia tabs & chords
Falling From The Throne Tabs
Heavenly Love Tabs
Living Water Tabs
Sign Of The Times Tabs
The Return Of Aslan Tabs


Song lyrics



↑ Back to top | Tablatures and chords are parodies/interpretations of the original songs. You may use it for private study, scholarship, research or language learning purposes only
© 2014 AZChords.com Contact us | Privacy policy | DMCA | Add/correct tabs | Request tabs | Top 50 tabs