>
 >
Awnaw

Awnaw Guitar Tabs

Nappy Roots - Awnaw chords, tabs, tablatures, lyrics

Guitar lessons | Add/correct | Request | Top 50 tabs Artists:  A B C D E F G H I J K L M N O P Q R S T U V W X Y Z 0-9

Awnaw Guitar Tabs – Nappy Roots

CD, Sheet music, Poster

Do you like Awnaw? Share with your friends now
Tabs


I dont like rap at all..but I heard the guitar and had to tab it!! This is 
the first
tab to this song i think..i think its good!!

Tuning: (Drop C) CGCFAD 
Effects: Reverb & Wah and of course Heavy Ass Distortion!!

Intro: Distortion and Reverb 1x 
D|-----------------------------------------------------------|
A|-----------------------------------------------------------|
F|-11---11--11/--13----13---13/--14----14---14\--9-9--7-7-\--|
C|--x---------/---x-----------/---x-----------\--x----x---\--|
G|--9-9---9---/--11-11----11--/--12-12----12--\--7----5---\--|
C|-----------------------------------------------------------|

Behind Intro: Clean
D|-11----11-----13----13----14----14----9---7-\---|
A|---11----11-----13----13----14----14---9---7/---|
F|------------------------------------------------|
C|------------------------------------------------|
G|------------------------------------------------|
C|------------------------------------------------|

Verse: Distorion 2X
D|--------------------------------------------------------------------------------|
A|--------------------------------------------------------------------------------|
F|-------------------------------------------------------------------------6^~~~--|
C|-4--4-2--X-X--X-4--4-2--X-X--X-4--4-2--X-X--X--7-7-7-7-7-7--9-9-9-9-9--X--------|
G|-4--4-2--X-X--X-4--4-2--X-X--X-4--4-2--X-X--X--5-5-5-5-5-5--7-7-7-7-7--X--------|
C|-4--4-2--X-X--X-4--4-2--X-X--X-4--4-2--X-X--X--------------------------X--------|

Solo Fill: Reverb, Distortion 2x
D|--------------------------------------|
A|-14-15-15/17-17/15-14h15-14p12h14-----|
F|--------------------------------------|
C|--------------------------------------|
G|--------------------------------------|
C|--------------------------------------|
   
Verse 2: Distorion 2x
D|-------------------------------------------------------------------------------------|
A|-------------------------------------------------------------------------------------|
F|-------------------------------------------------------------------------------------|
C|-4--4-2--X-7p6p5--4--4-2--x-7p6p5--4--4-2--x-7p6p5--7-7-7-7-7-7--9-9-9-9-9--x-7p6p5--|
G|-4--4-2--X--------4--4-2--x--------4--4-2--x--------5-5-5-5-5-5--7-7-7-7-7--x--------|
C|-4--4-2--X--------4--4-2--x--------4--4-2--x--------------------------------x--------|

Chorus: Distortion, Reverb 2x (Listen to song to get all the strums right)
D|----------------------------------------------------------------------------|
A|----------------------------------------------------------------------------|
F|-11-11-11-11-11-11--13-13-13-13-13-13--14-14-14-14-14-14--9-9-9-9--7-7-7-7--|
C|--x--x--x--x--x--x---x--x--x--x--x--x---x--x--x--x--x--x--x-x-x-x--x-x-x-x--|
G|--9--9--9--9--9--9--11-11-11-11-11-11--12-12-12-12-12-12--7-7-7-7--5-5-5-5--|
C|----------------------------------------------------------------------------|
  
Verse 3: Distortion 2x
D|----------------------------------------------------------------------------------|
A|----------------------------------------------------------------------------------|
F|------------6^~~-------------6^~~-------------6^~~--------------------------6^~~--|
C|-4--4-2--x--------4--4-2--x--------4--4-2--x-------7-7-7-7-7-7--9-9-9-9-9-9-------|
G|-4--4-2--x--------4--4-2--x--------4--4-2--x-------5-5-5-5-5-5--7-7-7-7-7-7-------|
C|-4--4-2--x--------4--4-2--x--------4--4-2--x--------------------------------------|

Verse 4: Distortion 1x
D|-----------------------------------------------------------------|      
A|-----------------------------------------------------------------|
F|-----------------------------------------------------------------|
C|-----------------------------------------------------------------|
G|-------------5-4--2-0-2----------------------5-4--2-0-2----------|
C|-4-0-6-0-7-0------------0-6-0-4--4-0-6-0-7-0------------0-6-0-4--|

Verse 4 Cont. PM All 2x
D|-----------------------------------------------------------------|
A|-----------------------------------------------------------------|
F|-----------------------------------------------------------------|
C|-----------------------------------------------------------------|
G|-------------5-4--2-0-2----------------------5-4--2-0-2----------|
C|-4-0-6-0-7-0------------0-6-0-4--4-0-6-0-7-0------------0-6-0-4--|

Breakdown: Distortion 1x
D|---------------------------------------------------------------|      
A|---------------------------------------------------------------|
F|---------------------------------------------------------------|
C|---------------------------------------------------------------|
G|---------------------------------------------------------------|
C|-4-2-4-2-4-2-4-6-5-2--4-2-4-2-4-2-4-6-5-2--4-2-4-2-4-2-4-6-5-2-|

Breakdown Cont.
D|----------------------------------|
A|----------------------------------|
F|--------------------------6^~~----|
C|-7-7-7-7-7-7--9-9-9-9-9-9---------|
G|-5-5-5-5-5-5--7-7-7-7-7-7---------|
C|----------------------------------|

Outro: Distortion Play a bunch of times!!
D|---------------------------------------------------------------|
A|---------------------------------------------------------------|
F|---------------------------------------------------------------|
C|-4-2-4-2-4-2-4-6-5-2--4-2-4-2-4-2-4-6-5-2--4-2-4-2-4-2-4-6-5-2-|
G|-4-2-4-2-4-2-4-6-5-2--4-2-4-2-4-2-4-6-5-2--4-2-4-2-4-2-4-6-5-2-|
C|-4-2-4-2-4-2-4-6-5-2--4-2-4-2-4-2-4-6-5-2--4-2-4-2-4-2-4-6-5-2-|

Outro Cont.
D|---------------------------------|
A|---------------------------------|
F|--------------------------6^~~---|
C|-7-7-7-7-7-7--9-9-9-9-9-9--------|
G|-5-5-5-5-5-5--7-7-7-7-7-7--------|
C|---------------------------------|

Behind Outro: 2x Lots of Reverb and Distortion
D|---------------------------------|
A|---------------------------------|
F|---------------------------------|This probaly aint right but its close
C|---------------------------------|
G|-9h10p9h10p9h10p9h10-11-8--------|
C|---------------------------------|

Outro Solo: Reverb, Distortion, and Wah 1x (Tremelo pick frets with *)
D|---------------------------------------------------------------|
A|-15-14-14-15-15-14-14-15-15-14-14-15-15-14-14--19*-21*-22*-21*-|
F|---------------------------------------------------------------|
C|---------------------------------------------------------------|
G|---------------------------------------------------------------|
C|---------------------------------------------------------------|

Outro Solo Cont. Really go Wah Crazy on this part!!
D|---------------------------------------------------------------|
A|-19*-21*-22*-21*--17*-15*-14*-12*-10*/9-(9)-(9)-(9)------------|
F|---------------------------------------------------------------|
C|---------------------------------------------------------------|
G|---------------------------------------------------------------|
C|---------------------------------------------------------------|

Outro End Fill: 1x
D|-----------------------|
A|-----------------------|
F|-----------------------|
C|-4-2-4-2-4-2-4-2-4-2---|
G|-4-2-4-2-4-2-4-2-4-2---|
C|-4-2-4-2-4-2-4-2-4-2---|


Playing Order:

Intro w/ Behind Intro
Verse 1
Solo Fill w/ Verse 1
Verse 2
Solo Fill w/ Verse 2
Chorus w/ Behind Intro
Verse 3
Solo Fill w/ Verse 3
Verse 4
Chorus w/ Behind Intro
Breakdown
Outro
Outro w/ Behind Outro
Outro Solo w/ Outro
Outro End Fill





Comments


Popular Nappy Roots tabs & chords
Ho Down Chords
Awnaw (Rock Remix) Tabs
Awnaw Remix Tabs
Awwnaw Tabs
Heads Up Tabs
Po' Folks Tabs
Po' Folks 1 Tabs
Ride Tabs


Song lyrics



↑ Back to top | Tablatures and chords are parodies/interpretations of the original songs. You may use it for private study, scholarship, research or language learning purposes only
© 2014 AZChords.com Contact us | Privacy policy | DMCA | Add/correct tabs | Request tabs | Top 50 tabs