» » »

Study In G Major Tabs (ver.1)

Artists:  A B C D E F G H I J K L M N O P Q R S T U V W X Y Z # 

Study In G Major Tabs (ver.1)

Napoleon Coste
Rating:
0/5 (0 votes)

Hard to play? Try these video lessons and learn fast.
                E-|---Song:-Study-in-G-Major-----------------------|
D-|---Transcription-by:Christian Liang-------------|
E-|---Enjoy!---------------------------------------|


"Study in G Major" by Napoleon Coste (1806-1883)

Play once. 20 Bars. 4/4 Time Signature. Key of G.
Feel Free to alter the right hand plucking.

[1]
E|-----------------|-----------------|-----------------|--0-----------0--|
B|--------------0--|--1-------0---1--|--3---0---1---3--|------1---3------|
G|------0---2------|------2----------|-----------------|-----------------|
D|-----------------|-----------------|-----------------|-----------------|
A|-----------------|--0=============-|--2=============-|--3=============-|
E|--3=============-|-----------------|-----------------|-----------------|
    |   |   |   |     |   |   |   |     |   |   |   |     |   |   |   |
L   3       2         1   2       1     4       1   4     3   1   4
                                        2

R   p   i   i   m     m   i   m   i     m   i   m   i     a   m   m   a
                      p                 p                 p

[5]
E|--2-------0---2--|--3-----------0--|--2--------------|--0--------------|
B|------3----------|------1---3------|------0---1---3--|----------0---1--|
G|-----------------|-----------------|-----------------|------2----------|
D|--0=============-|--2=============-|--0=============-|-----------------|
A|-----------------|-----------------|-----------------|--3=============-|
E|-----------------|-----------------|-----------------|-----------------|
    |   |   |   |     |   |   |   |     |   |   |   |     |   |   |   |

L   2   3       2     4   1   3         2       1   4     3   2       1

R   a   m   a   a     a   m   m   a     a   m   i   m     a   i   m   i
    p                 p                 p                 p

[9]
E|-----------------|-----------------|-----------------|-----------------|
B|--3-----------0--|--1-------3---1--|--0---3---1---0--|------1---0------|
G|------0---2------|------2----------|-----------------|--2-----------2--|
D|-----------------|-----------------|-----------------|--0=============-|
A|--2=============-|--0=============-|-----------------|-----------------|
E|-----------------|-----------------|--3=============-|-----------------|
    |   |   |   |     |   |   |   |     |   |   |   |     |   |   |   |

L   4       3         1   2   4   1     3   4   1         2   1       2
    2

R   m   i   i   m     m   i   m   i     m   i   m   i     i   m   m   i
    p                 p                 p                 p

[13]
E|-----------------|-----------------|-----------------|-----------------|
B|-----------------|-----------------|--0=============-|-----------------|
G|--0=============-|--3---2-h-3---0--|-----------------|--2=============-|
D|--2---1-h-2---0--|-----------------|--0-------0------|----------0------|
A|-----------------|--4=============-|------4-------2--|--3---0----------|
E|-----------------|-----------------|-----------------|--------------2--|
    |   |   |   |     |   |   |   |     |   |   |   |     |   |   |   |

L   2   1   2         2   1   2             3       2     2           2
                      3                                   3

R   i   p       p     m   i       i     m   p   i   p     m   p   i   p
    p                 p                 p                 p

[17]
E|-----------------|-----------------|-----------------|--3========------|
B|-----------------|-----------------|-----------------|--0========------|
G|--0--------------|--0==========-0--|--0========------|--0========------|
D|-----------------|--0=======-------|-----------------|-----------------|
A|----------2=====-|----------2------|-----------------|-----------------|
E|--3=======-------|-----------------|--3========------|--3========------|
    |   |   |   |     |   |   |   |     |   |   |   |     |   |   |   |

L   3       2                 2         3                 4,3

R   m       p         m       p   m     m
    p                 i                 p                 a,m,i,p
            
Hard to play? Try these video lessons and learn fast. | Correct




comments powered by Disqus
↑ Back to top | Tablatures and chords are parodies/interpretations of the original songs. You may use it for private study, scholarship, research or language learning purposes only