» » »

Napoleon Coste, Study 1 In C Major Tabs (ver.3)

Artists:  A B C D E F G H I J K L M N O P Q R S T U V W X Y Z # 

Study 1 In C Major Tabs (ver.3)

Napoleon Coste Tabs
 Rating:
4/5 (4 votes)
Study 1 In C Major lessons Tabs too difficult? Try these video lessons and learn fast
                E-|---Song:-Study-3-in-C-Major---------------------|
D-|---Transcription-by:Christian Liang-------------|
E-|---Enjoy!---------------------------------------|

"Study 3 in C Major" by Napoleon Coste (1806-1883)

Play once. 16 Bars. 4/4 Time Signature. Key of C. Feel 
Free to alter the right hand plucking. Beginner 
pluck with the ring finger (a).

[1]
E|------3---0------|-----------------|-----------------|
B|--1-----------1--|--0-----------0--|--1-------3------|
G|-----------------|------0---2------|------0-------0--|
D|--2=============-|--3=============-|--2======-0=====-|
A|-----------------|-----------------|-----------------|
E|-----------------|-----------------|-----------------|
    |   |   |   |     |   |   |   |     |   |   |   |     

R   m   a   a   m     m   i   i   m     m   i   m   i     
    p                 p                 p       p                                     	
					          
L   1   4       1     3       2         1       4                           
    2                                   2
				
[4]
E|--0-----------0--|--1======-0=====-|-----------------|
B|------1---3------|-----------------|--3======-1=====-|
G|-----------------|------2-------0--|-----------------|
D|-----------------|-----------------|------3-------2--|
A|--3=============-|-----------------|-----------------|
E|-----------------|-----------------|-----------------|
    |   |   |   |     |   |   |   |     |   |   |   |       
R   a   m   m   a     a   p   a   p     m   p   m   p    
    p
L   3   1   4         1   2             4   3   1   2 

[7]
E|--------------0--|-----------------|------3---0------|
B|--0-------1------|--3---0----------|--1-----------1--|
G|------0----------|--0======-0=====-|-----------------|
D|--0---3---2------|--------------3--|--2=============-|
A|--------------3--|-----------------|-----------------|
E|-----------------|-----------------|-----------------|
    |   |   |   |     |   |   |   |     |   |   |   |    

R   m   i   m   a     m   m   i   p     m   a   a   a     
    p   p   p   p     i                 p                 
						               
L       3   1   3     4           3     1   4       1                 
            2                           2                                   

[9]
E|-----------------|-----------------|--0-----------0--|
B|--0-----------0--|--1-------3------|------1---3------|
G|------0---2------|------0-------0--|-----------------|
D|--3=============-|--2======-0=====-|-----------------|
A|-----------------|-----------------|--3======-2---1--|
E|-----------------|-----------------|-----------------|
    |   |   |   |     |   |   |   |     |   |   |   |  
R   m   i   i   m     m   i   m   i     a   m   m   a
    p                 p       p         p       p   p
L   3       2         1       4         3   1   4   1  
                      2                         2


[13]
E|------1-------0--|-----------------|----------0------|
B|-----------------|------3-------1--|--------------3--|
G|-----------------|-----------------|------0----------|
D|-----------------|-----------------|-----------------|
A|--0=======-------|-----------------|-----------------|
E|----------3=====-|--1======-2=====-|--3=============-|
    |   |   |   |     |   |   |   |     |   |   |   |     

R   p   a   p   a     p   m   p   m     p   i   a   m        			          
L       1   3         1   4   2   1     3           4          

[16]
E|-----------------|
B|--1========------|
G|-----------------|
D|-----------------|
A|--3========------|
E|-----------------|
    |   |   |   |   

R   m,p  
L   1,3
            
Submit corrections

comments powered by Disqus
↑ Back to top | Napoleon Coste Tabs for Study 1 In C Major. Lyrics for acoustic guitar and electric guitar. Tablatures and chords are parodies/interpretations of the original songs. You may use it for private study, scholarship, research or language learning purposes only