» » »

Napoleon Coste, Study 1 In C Major Tabs (ver.1)

Artists:  A B C D E F G H I J K L M N O P Q R S T U V W X Y Z # 

Study 1 In C Major Tabs (ver.1)

Napoleon Coste Tabs
 Rating:
4/5 (4 votes)
Study 1 In C Major lessons Tabs too difficult? Try these video lessons and learn fast
1
                E-|---Song:-Study2---------------------------------|
D-|---Transcription-by:Christian Liang-------------|
E-|---Enjoy!---------------------------------------|


"Study 2 in C Major" by Napoleon Coste (1806-1883)


Play Twice. 8 Bars in total. 4 No Barre Chords. Hammer on, pull offs. 
Note suspensions. 4/4 Time Signature.
Feel Free to change the right hand fingering. 


		    [1]
E|-----------------|-----------------|-----------------|----------3---1--|
B|-----------------|----------1-h-0--|--0-------3---1--|--1-p-0----------|
G|--------------0--|--0========------|------2----------|--0=============-|
D|-----------------|------2=========-|--3=============-|-----------------|
A|-----------------|-----------------|-----------------|-----------------|
E|-----------------|-----------------|-----------------|-----------------|  
    |   |   |   |     |   |   |   |     |   |   |   |     |   |   |   |

R               i     i   p   m         p   i   m   m     m       a   a
						          i
L                         2   1         3   2   4   1     1       4   1


[5]
E|--1-p-0----------|-----------------|-----------------|----------0------|
B|----------1------|----------1-p-0--|--0-------3---1--|--1-p-0-------3--|
G|--2=======----2--|--0=======-------|------2----------|--0========------|
D|-----------------|------2=========-|--3=============-|-----------------|
A|-----------------|-----------------|-----------------|-----------------|
E|-----------------|-----------------|-----------------|----------3=====-|
    |   |   |   |     |   |   |   |     |   |   |   |     |   |   |   |

R   m       i   p     i   p   m         m   i   m   m     m       a         
    p                                   p                 i       p         

L   1       1   2         2   1         3   2   4   1     1       3   4     
    2									    

[]

E|-----------------|
B|--1=============-|
G|-----------------|
D|-----------------|
A|--3=============-|
E|-----------------|

R   m
    p
L   1
    3
            
Submit corrections

comments powered by Disqus
↑ Back to top | Napoleon Coste Tabs for Study 1 In C Major. Lyrics for acoustic guitar and electric guitar. 1 Tablatures and chords are parodies/interpretations of the original songs. You may use it for private study, scholarship, research or language learning purposes only