>
 >
Op 51 No 6 - Rondeau In E

Op 51 No 6 - Rondeau In E Guitar Tabs

Napoleon Coste - Op 51 No 6 - Rondeau In E chords, tabs, tablatures, lyrics

Guitar lessons | Add/correct | Request | Top 50 tabs Artists:  A B C D E F G H I J K L M N O P Q R S T U V W X Y Z 0-9

Op 51 No 6 - Rondeau In E Guitar Tabs – Napoleon Coste

CD, Sheet music, Poster

Do you like Op 51 No 6 - Rondeau In E? Share with your friends now
Tabs
Napoleon Coste, Rondo in E, from Op.51 (No.6)
Time signature 2:4

******************************************************
thanks to Franзois Kuonen for correction to measure 54
(B changed to C#)
******************************************************


1  |    |     |    |     |    |     |    |     |     |       |    |
E|----------|------7---|-5----2---|-4----0---|-------------|------7--|
B|-0----2---|-0----0---|-0----0---|-0----0---|-0-----2-----|-0----0--|
G|---3----3-|----------|----------|------1---|----3-----3--|---------|
D|----------|------6---|-4----1---|-2--------|-------------|------6--|
A|----------|----------|----------|----------|-------------|---------|
E|----------|----------|----------|----------|-------------|---------|

7  |  |    |  |     |    |      |     |      |     |      |     |
E|-5--2--|-0-----|--0----0----|------------|------------|------------|
B|-0--0--|-------|-----4----2-|-0----------|-0----------|-0----------|
G|----2--|-1----*|*-----------|-------1----|-------2----|-------1----|
D|-4--1--|-2----*|*-----------|-------2----|-------1----|-------2----|
A|-------|-------|------------|----2-----2-|----2-----2-|----2-----2-|
E|-------|----0--|------------|------------|------------|------------|

13 |     |      |      |       |       |      |   |       |     |
E|-0-----0----|--------------|---------2----|-0-------|---0--9--7--5-|
B|----4-----2-|-0------------|-0------------|---------|--------------|
G|------------|--------1-----|---------2----|-1------*|*-------------|
D|------------|--------2-----|---------1----|-2------*|*-------------|
A|------------|----2-------2-|-----2------2-|---------|---0----------|
E|------------|--------------|--------------|-----0---|--------------|

18 |     |      |     |      |     |      |       |       |     |
E|-5--4--2--0-|----0--2--4-|-5--9--0--0-|-0---9---7---5-|-5--4--2--0-|
B|------------|-4-----3----|------------|---------------|------------|
G|------------|------------|-6----------|---------------|------------|
D|------------|------------|------------|---------------|------------|
A|------------|------------|-0----------|-0-------------|------------|
E|-0----------|-0-----0----|------------|---------------|-0----------|

               1.........  2........ 
23 |     |      |     |     |     |     |      |       |       |
E|----0--2--4-|-5---------|-5-----5-|--4-------4---7-|-5-------5-----|
B|-4-----4--0-|-------5---|---------|------2---------|---------------|
G|------------|-6--------*|-6-------|*---------------|-----6-------6-|
D|------------|----------*|---------|*-3-------------|-4-------4-----|
A|------------|-0---------|-0-------|----------------|---------------|
E|-0-----0----|-----------|---------|----------------|---------------|

28 |     |      |     |      |       |      |     |      |     |
E|-7-----7--10|-9-----9----|-----10--9--7-|-7-----5----|-5---------4-|
B|------------|------------|-7------------|------------|-------3-----|
G|----9-------|----9-----9-|-7------------|----6-----6-|----4--------|
D|-6----------|-7-----7----|--------------|------------|-------------|
A|------------|------------|-5------------|-7----------|-------------|
E|------------|------------|--------------|------------|-0-----------|

  1.......  2......
33 |    |     |  |    |      |       |    |      |    |    |    |
E|-5----5--|-5-----|---------------|------7----|-5----2--|-4----0----|
B|-2-------|-2-----|--0------2-----|-0----0----|-0----0--|-0----0----|
G|--------*|-------|*-----3-----3--|-----------|---------|------1----|
D|--------*|-------|*--------------|------6----|-4----1--|-2---------|
A|-0-------|-0-----|---------------|-----------|---------|-----------|
E|---------|-------|---------------|-----------|---------|-----------|

39 |     |      |    |   |    |   |   |   |       |       |     |
E|------------|-----7--|-5----2-|-0-----|-0-------0-----|------------|
B|-0-----2----|-0---0--|-0----0-|-------|-----4-------2-|-0----------|
G|----3-----3-|--------|------2-|-1-----|---------------|-------1----|
D|------------|-----6--|-4----1-|-2-----|---------------|-------2----|
A|------------|--------|--------|-------|---------------|----2-----2-|
E|------------|--------|--------|-----0-|---------------|------------|

45 |     |      |    |      |     |      |     |       |       |
E|------------|-----------|-0-----0----|-------------|---------2-----|
B|-0----------|-0---------|----4-----2-|-0-----------|-0-------------|
G|-------2----|------1----|------------|-------1-----|---------2-----|
D|-------1----|------2----|------------|-------2-----|---------1-----|
A|----2-----2-|----2----2-|------------|----2------2-|-----2-------2-|
E|------------|-----------|------------|-------------|---------------|

50 |     |      |     |      |       |      |      |      |     |
E|-0----------|----0--0----|-----0---0----|-----0--0----|----0--0----|
B|------------|------------|--------------|-----0--0----|----2--2----|
G|-1----------|----2--2----|-----2---2----|-----1--1----|----0--0----|
D|-2--1--2--0-|------------|--------------|-------------|------------|
A|------------|-4--------4-|-3----------3-|-2---------2-|-1--------1-|
E|------------|------------|--------------|-------------|------------|

55 |   |      |  |    |     |      |     |      |  |   |  |    |  |
E|--------0-|-4--2--|-0----------|-0----------|-0----|-4-----|-0----||
B|-----0----|-------|-------0----|-------0----|------|-------|-0----||
G|---1------|-------|------------|-1----------|-1----|-4-----|-1----||
D|----------|-------|-2----------|------------|------|-------|-2----||
A|-2--------|----2--|----2-----2-|----2-----2-|------|-------|-2----||
E|----------|-------|-------4----|-0-----4----|-0----|-0-----|-0----||





Comments


Popular Napoleon Coste tabs & chords
Barcarolle Tabs
Mthode Complte Pour La Guitare Par Ferdinand Sor - No 27 Tabs
Mthode Complte Pour La Guitare Par Ferdinand Sor - Nos 1-15 Tabs
Op 38 No 1 Tabs
Op 38 No 4 Tabs
Op 41 No 4 Tabs
Op 51 No 1 - Barcarolle In A Tabs
Op 51 No 10 - Mlancolie In Em Tabs
Study 1 In C Major Tabs
Study 2 In C Major Tabs


Song lyrics



↑ Back to top | Tablatures and chords are parodies/interpretations of the original songs. You may use it for private study, scholarship, research or language learning purposes only
© 2014 AZChords.com Contact us | Privacy policy | DMCA | Add/correct tabs | Request tabs | Top 50 tabs