» » »

Op 51 No 1 - Barcarolle In A Tabs (ver.1)

Artists:  A B C D E F G H I J K L M N O P Q R S T U V W X Y Z # 

Op 51 No 1 - Barcarolle In A Tabs (ver.1)

Napoleon Coste
Rating:
0/5 (0 votes)

Hard to play? Try these video lessons and learn fast.
                -----------------------------------------------------------------------
BARCAROLLE - Op 51 No 1 - Napolйon Coste
-----------------------------------------------------------------------

***********************************************************************
measure 14: F# (1st string, 2nd fret) changed to E (1st string, open)
***********************************************************************

Tuning: Standard   Key: A Major   Time: 3/8

1   |  |  |     |  |  |     |  |  |     |  |  |     |  |  |     |  |  |
e|-----0--5--|--5-----4--|--0--4--7--|--7-----5--|--5--4--2--|--2-----0--|
B|--2--------|--------3--|--3--------|--------5--|--7--5--3--|--3-----2--|
G|--2--------|--------4--|--4--------|--------6--|-----------|--------2--|
D|-----------|-----------|-----------|-----------|-----------|-----------|
A|--0--------|-----------|-----------|--0--------|--0--------|--0--------|
E|-----------|--0--------|--0--------|-----------|-----------|-----------|

7   |   |  |     |  |  |     |  |  |     |  |  |     |  |  |     |  |  |
e|--4p2-0-----|-----------|-----0--5--|--5-----4--|--0--4--7--|--7-----5--|
B|--0------3--|--3-----2--|--2--------|--------3--|--3--------|--------5--|
G|---------4--|--4-----2--|--2--------|--------4--|--4--------|--------6--|
D|------------|-----------|-----------|-----------|-----------|-----------|
A|------------|--0--------|--0--------|-----------|-----------|--0--------|
E|--0---------|-----------|-----------|--0--------|--0--------|-----------|

                                         1_________  2_________
13  |     |  |     |  |  |     |  |  |     |  |  |     |  |  |
e|--5h7p5-4--2--|--0---<12>-|--9--7--0--|--5-------||--5-------||
B|--7-----5--3--|--2--------|-----------|----------||----------||
G|--------------|-----------|--9--7--7--|--6-------||--6-------||
D|--0-----------|-----------|--------6--|--7-------||--7-------||
A|--------------|--0--------|-----------|--------0-||--------0-||
E|--------------|-----------|--0--------|----------||----------||
                                                               Fine (End)

17  |  |  |     |  |  |     |  |  |     |  |  |     |  |  |     |  |  |
e|--4--7--0--|--0--------|--2--4--5--|--5-----4--|--7--12-11-|--11----9--|
B|--0--------|--------4--|--0--0--0--|--0-----0--|--0--------|--------10-|
G|-----------|--2--------|-----------|-----------|-----------|--------9--|
D|-----------|--4--------|--1--2--4--|--4-----2--|--6--------|-----------|
A|-----------|-----------|-----------|-----------|-----------|--0--------|
E|--0--------|-----------|-----------|-----------|-----0-----|-----------|

23  |  |  |     |  |  |     |  |  |     |  |  |     |  |  |     |  |  |
e|--7--5--4--|--4-----2--|--4--7--0--|--0--------|--2--4--5--|--5-----4--|
B|--0--0--0--|--0-----0--|--0--------|--------4--|--0--0--0--|--0-----0--|
G|-----------|-----------|-----------|--2--------|-----------|-----------|
D|--6--4--2--|--2-----1--|-----------|--4--------|--1--2--4--|--4-----2--|
A|-----------|-----------|-----------|-----------|-----------|-----------|
E|-----------|-----------|--0--------|-----------|-----------|-----------|

29  |  |   |     |    |     |       |  |  |     |   |   |
e|--7--12--11-|--11-9------------|--0--2-----|--0-----------||
B|--0--9------|-------12-10-9----|--0--0--4--|--------0-2-3-||
G|------------|---------------11-|--1--2--2--|--1-----------||
D|--6---------|------------------|--------4--|--2-----------||
A|------------|--0---------------|--2--------|--------------||
E|-----0------|------------------|-----------|------0-------||
                                                            D.C. Al Fine
                              (go back to the beginning and finish at End)
            
Hard to play? Try these video lessons and learn fast. | Correct




comments powered by Disqus
↑ Back to top | Tablatures and chords are parodies/interpretations of the original songs. You may use it for private study, scholarship, research or language learning purposes only