>
 >
Op 51 No 10 - Mlancolie In Em

Op 51 No 10 - Mlancolie In Em Guitar Tabs

Napoleon Coste - Op 51 No 10 - Mlancolie In Em chords, tabs, tablatures, lyrics

Guitar lessons | Add/correct | Request | Top 50 tabs Artists:  A B C D E F G H I J K L M N O P Q R S T U V W X Y Z 0-9

Op 51 No 10 - Mlancolie In Em Guitar Tabs – Napoleon Coste

CD, Sheet music, Poster

Do you like Op 51 No 10 - Mlancolie In Em? Share with your friends now
Tabs
**************************************************************************
Mйlancolie from "Recrйation du guitariste" Op. 51, No. 10
Napolйon Coste (1807-1883)
**************************************************************************

Time Signature = 2/4
Andantino,  48 bpm.

    pp                      sl.
e||---------------0-|-0--------------|-----2---0-----|-0------------------|
B||-----0-------0---|-----4///7------|-----1---0---4-|--<12><12>----------|
G||---0-------0-----|-2--------------|-----2---0-----|-0-------<12>-------|
D||-2-----1h2-------|-4--------------|-------------4-|--------------------|
A||-----------------|------------2h3-|-3---0---2---2-|------------<7>--2s.|
E||-----------------|----------------|---------------|-0------------------|
    2     1 2         1   4      2 3           1          4  4  4  1  2
                      3

                          sl.    mf
e||---------------0-|-0----------5--|-7-10-7---0-----2-|-3---------------||
B||-----0-------0---|----4///7---7--|-8------8-------1-|-0----<12>-------||
G||---0-------0-----|-2----------7--|-0--------------2-|-0-----------<12>||
D||-----------------|-4----------0--|----------------0-|---<12>---<7>----||
A||-7-----6-7-------|---------------|------------3-0---|-----------------||
E||-----------------|---------------|------------------|-3---------------||
    2     1 2         1  4       1    1 4  1 2   3          4   4  1  4
                      3          4    2
                                 3

     softly                       sl.                             sl.
e||--------------3-2-|-0---2---3---\7-|-------------3-2-|-0---2---3/7-7-7-|
B||--0---0-----0-----|---0---0---0----|-0---0-----0-----|---0---0---------|
G||@-----------------|-0--------------|-----------------|-0---------------|
D||@-----1-4---------|-----1---2------|-----1-4---------|-----1---2-------|
A||----2-----2-------|----------------|---2-----2-------|-----------------|
E||------------------|----------------|-----------------|-------------0---|
       2 1 4 2   4 3       4   4    4     2 1 4 2   4 3           4 4
                           1   1

                 rit..     pause..        a tempo.                    Fine.
e||-7p5-5-7-8/12-12p0-|----------8-7----|-----------5-3-2-|-0-------0-----||
B||-----5-------------|-8--7===------10-|-8-0-------------|-0---0---0-----||
G||-----5-------------|-9--8===---------|-----2-0---------|-0-------0----@||
D||---------7----10---|-8--9===---------|---------4==-----|-----1-4-2----@||
A||-------------------|-----------------|-7==-----6==-----|---2-----------||
E||-0-----------------|-----------------|-----------------|------------0--||
    4 1 1 4 4 4  4      2  1     2 1 4    4   2   1 2 2 1     2 1 4 2
        1   1    1      3  2              1       3
        1               1  3

   f
e||--4/7-7p4-0-------|-2---2---4---0---|---5---4---2---1-|---2---0---------|
B||--0---------0-----|---0---0---0---0-|-2---------------|---------4p0-0-0-|
G||@-------------1---|-------------1---|-----4---2---1---|-2---0-----------|
D||@---------------2-|-1-------2-------|-----------------|---------4-------|
A||------------------|-----2-----------|-0-------0-------|-0---1---2-------|
E||--0---------------|-----------------|-----------------|-----------------|
     4 4 4 1     1 2   4   4   4   1     1 4 2 3 2 3 1 2   2 3 1   4
                       1   2   1                                   3
                                                                   1

e||--4/7-7p4-0-------|-2---2---4---0---|-----------0---0---|-2---2---0------||
B||--0---------0-----|---0---0---0---1-|-2/10-9----------0-|-------0--------||
G||--------------1---|-------------1---|--------11-----1---|-----2---1-----@||
D||----------------2-|-1-------2-------|---------------2---|-----1---2-----@||
A||------------------|-----2-----------|-0-----------2=====|===2------------||
E||--0---------------|-----------------|-------------------|-------------0--||
     4 4 4 1     1 2   4   4   4   1 2   2  2 1  3   2 1     4 2 2   1
                       1   2   1                       3         3   3
                                                                 1

  softly     CIV
e||--------------4---|-------------4---|-------0---------|-----------------|
B||--2/5-4-----4-----|-4/7-5-4---5-----|-5/9-7---4---4---|-5---5---4---4---|
G||@-------6-5-------|---------6-------|-----------5---5-|---6---6---5---5-|
D||@-------------6---|-------------6---|-------------6---|-----5-------6---|
A||------------------|-----------------|-----------------|-----------------|
E||------------------|-----------------|-----------------|-----------------|
     2   1 3 2 1 1     4   2 1 3 2 1     4   2   1 2 1 2   2 3 2 3 1 2 1 2
                 3                 3                 3         1       3

                                                                     pause..
                                                        rit..{ CIV  } CII
e||-------------4---|-------------4---|-------0---5p2---|---0---4-----2---|
B||-2/5-4-----4-----|-4/7-5-4---5-----|-5/9-7---3-----3-|---2-4-----5-4---|
G||-------6-5-------|---------6-------|-----------------|-----5-----6-2---|
D||-------------6---|-------------6---|---------0-------|-------6---------|
A||-----------------|-----------------|-----------------|---------4---2---|
E||-----------------|-----------------|-----------------|-4---------------|
     2   1 3 2 1 1     4   2 1 3 2 1     4   2            3 1 1 1   2 1
                 3                 3                          2 3 1 3 3

 (f) a tempo.                                                      D.C al Fine
e||--4/7-7p4-0-------|-2---2---4---0---|-----------0---0---|-2---2---0------||
B||--0---------0-----|---0---0---0---1-|-2/10-9----------0-|-------0--------||
G||--------------1---|-------------1---|--------11-----1---|-----2---1-----@||
D||----------------2-|-1-------2-------|---------------2---|-----1---2-----@||
A||------------------|-----2-----------|-0-----------2=====|===2------------||
E||--0---------------|-----------------|-------------------|-------------0--||
     4 4 4 1     1 2   4   4   4   1 2   2  2 1  3   2 1     4 2 2   1
                       1   2   1                       3         3   3
                                                                 1





Comments


Popular Napoleon Coste tabs & chords
Barcarolle Tabs
La Romanesca Intro Tabs
Mthode Complte Pour La Guitare Par Ferdinand Sor - No 18 Tabs
Mthode Complte Pour La Guitare Par Ferdinand Sor - No 27 Tabs
Mthode Complte Pour La Guitare Par Ferdinand Sor - Nos 1-15 Tabs
Op 38 No 1 Tabs
Op 38 No 7 Tabs
Op 51 No 1 - Barcarolle In A Tabs
Study 2 In C Major Tabs
Study 3 In C Major Tabs


Song lyrics



↑ Back to top | Tablatures and chords are parodies/interpretations of the original songs. You may use it for private study, scholarship, research or language learning purposes only
© 2014 AZChords.com Contact us | Privacy policy | DMCA | Add/correct tabs | Request tabs | Top 50 tabs