>
 >
Mthode Complte Pour La Guitare Par Ferdinand Sor - No 27

Mthode Complte Pour La Guitare Par Ferdinand Sor - No 27 Guitar Tabs

Napoleon Coste - Mthode Complte Pour La Guitare Par Ferdinand Sor - No 27 chords, tabs, tablatures, lyrics

Guitar lessons | Add/correct | Request | Top 50 tabs Artists:  A B C D E F G H I J K L M N O P Q R S T U V W X Y Z 0-9

Mthode Complte Pour La Guitare Par Ferdinand Sor - No 27 Guitar Tabs – Napoleon Coste

CD, Sheet music, Poster

Do you like Mthode Complte Pour La Guitare Par Ferdinand Sor - No 27? Share with your friends now
Tabs
Leccion 27 from Sor/Coste Method for Guitar, Study in A dur (A major)

        |   |   |    |   |    |   |   |    |   |    |   |    |   |   |   |
E|-12-|-9-------0------|------0-------0-|------9---12---9-|----------0--12-|
B|----|----10--------2-|-3--------2-----|-10--------------|-12---9---------|
G|----|--------------2-|-4--------2-----|-----------------|----------------|
D|----|----------------|----------------|-----------------|----------------|
A|----|----------------|----------------|-0---------------|----------------|
E|----|----------------|----------------|-----------------|-0--------------|

   |    |   |   |   |    |    |    |    |   |     |   |    |   |    |    |
E|-9--------0-----|------0---------0-|------9----12---9-|---------------12-|
B|-----10-------2-|-3---------2------|-10---------------|-12---9---10------|
G|--------------2-|-4---------2------|------------------|------------------|
D|----------------|------------------|------------------|------------------|
A|-0--------------|------------------|-0----------------|-----------0------|
E|----------------|------------------|------------------|-0----------------|

   |    |   |   |   |    |    |    |    |   |     |   |    |   |    |    |
E|-9--------0-----|------0---------0-|------9----12---9-|-----------0---12-|
B|-----10-------2-|-3---------2------|-10---------------|-12---9-----------|
G|--------------2-|-4---------2------|------------------|------------------|
D|----------------|------------------|------------------|------------------|
A|-0--------------|------------------|-0----------------|------------------|
E|----------------|------------------|------------------|-0----------------|

   |    |   |   |   |    |    |    |    |   |     |   |    |   |    |    |
E|-9--------0-----|------0---------0-|------9----12---9-|------------------|
B|-----10-------2-|-3---------2------|-10---------------|-12---9---10------|
G|--------------2-|-4---------2------|------------------|----------------9-|
D|----------------|------------------|------------------|------------------|
A|-0--------------|------------------|-0----------------|-----------0------|
E|----------------|------------------|------------------|-0----------------|

    |   |   |   |    |   |    |     |   |   |    |    |    |   |     |   |
E|-10-------------|------9---------12|-10---------------|------9----12---0-|
B|-----12---9--12-|-10---------------|-----12----9---12-|-10---------------|
G|----------------|-----------9------|------------------|------------------|
D|----------------|------------------|------------------|------------------|
A|----------------|-0----------------|------------------|-0----------------|
E|-0--------------|------------------|-0----------------|------------------|

   |    |   |   |   |    |    |    |   |    |    |    |    |    |   |    |
E|------2-------4-|------5---------7-|-9----------------|------12---9------|
B|----------------|------------------|-----10---12----9-|-10------------10-|
G|----------------|------------------|------------------|------------------|
D|-0--------2-----|-4---------0------|------------------|------------------|
A|----------------|------------------|------------------|-0----------------|
E|----------------|------------------|-0----------------|------------------|

   |    |   |   |   |  |  |  |   |    |    |    |   |  |  |    |    ||
E|-0----0---0---0-|-0--0-------|------0----0----0-|-0-----5----5--|-5-----||
B|------0---2---0-|-2-----2----|------0-----------|-------2-------|-2-----||
G|------7---2---1-|-2--------2-|-----------2----1-|-2-------------|-------||
D|----------------|------------|-2----0-----------|---------------|-------||
A|----------------|------------|-----------4----2-|-4-----0-------|-0-----||
E|----------------|------------|------------------|---------------|-------||





Comments


Popular Napoleon Coste tabs & chords
Barcarolle Tabs
La Romanesca Intro Tabs
Op 38 No 4 Tabs
Op 38 No 7 Tabs
Op 41 No 4 Tabs
Op 51 No 10 - Mlancolie In Em Tabs
Op 51 No 6 - Rondeau In E Tabs
Study 1 In C Major Tabs
Study 2 In C Major Tabs
Study In G Major Tabs


Song lyrics



↑ Back to top | Tablatures and chords are parodies/interpretations of the original songs. You may use it for private study, scholarship, research or language learning purposes only
© 2014 AZChords.com Contact us | Privacy policy | DMCA | Add/correct tabs | Request tabs | Top 50 tabs