» » »

Napoleon Coste, Barcarolle Tabs (ver.1)

Artists:  A B C D E F G H I J K L M N O P Q R S T U V W X Y Z # 

Barcarolle Tabs (ver.1)

Napoleon Coste Tabs
 Rating:
4.2/5 (5 votes)
Barcarolle lessons Tabs too difficult? Try these video lessons and learn fast
                -----------------------------------------------------------------------
                                    BARCAROLLE - Napoléon Coste
-----------------------------------------------------------------------

Tuning: Standard

e|-----0--5--|--5----4----|--0--4--7--|--7-----5----------------------|
B|--2--------|-------3----|--3--------|--------5----------------------|
G|--2--------|-------4----|--4--------|--------6----------------------|
D|-----------|------------|-----------|-------------------------------|
A|--0--------|------------|-----------|--0----------------------------|
E|-----------|--0---------|--0--------|-------------------------------|


e|--5--4--2--|--2----0--|--4p2--0-----|-------------------------------|
B|--7--5--3--|--3----2--|--0-------3--|--3----2-----------------------|
G|-----------|-------2--|----------4--|--4----2-----------------------|
D|-----------|----------|-------------|-------------------------------|
A|--0--------|--0-------|-------------|--0----------------------------|
E|-----------|----------|--0----------|-------------------------------|


e|-----0--5--|--5----4----|--0--4--7--|--7-----5----------------------|
B|--2--------|-------3----|--3--------|--------5----------------------|
G|--2--------|-------4----|--4--------|--------6----------------------|
D|-----------|------------|-----------|-------------------------------|
A|--0--------|------------|-----------|--0----------------------------|
E|-----------|--0---------|--0--------|-------------------------------|


e|--5h7p5--4--2--|--2----[12]--|--9--7--0--|--5-----------------------|
B|--7------5--3--|--2----------|-----------|--------------------------|
G|---------------|-------------|--9--7--7--|--6-----------------------|
D|--0------------|-------------|--------6--|--7-----------------------|
A|---------------|--0----------|-----------|--------0-----------------|
E|---------------|-------------|--0--------|--------------------------|
                                                                  Fine

e|--4--7--0--|--0--------|--2--4--5--|--5-----4-----------------------|
B|--0--------|--------4--|--0--0--0--|--0-----0-----------------------|
G|-----------|--2--------|-----------|--------------------------------|
D|-----------|--4--------|--1--2--4--|--4-----2-----------------------|
A|-----------|-----------|-----------|--------------------------------|
E|--0--------|-----------|-----------|--------------------------------|


e|--7--12--11--|--11----9---|--7--5--4--|--4----2---------------------|
B|--0----------|--------10--|--0--0--0--|--0----0---------------------|
G|-------------|--------9---|-----------|-----------------------------|
D|--6----------|------------|--6--4--2--|--2----1---------------------|
A|-------------|--0---------|-----------|-----------------------------|
E|-----0-------|------------|-----------|-----------------------------|



e|--4--7--0--|--0--------|--2--4--5--|--5-----4-----------------------|
B|--0--------|--------4--|--0--0--0--|--0-----0-----------------------|
G|-----------|--2--------|-----------|--------------------------------|
D|-----------|--4--------|--1--2--4--|--4-----2-----------------------|
A|-----------|-----------|-----------|--------------------------------|
E|--0--------|-----------|-----------|--------------------------------|

e|--7--12--11--|--11-9-------------|--0--2-----|--0-------------------|
B|--0--9-------|-------12-10-9-----|--0--0--4--|--------0--2--3-------|
G|-------------|---------------11--|--1--2--2--|--1-------------------|
D|--6----------|-------------------|--------4--|--2-------------------|
A|-------------|--0----------------|--2--------|----------------------|
E|-----0-------|-------------------|-----------|-----0----------------|
                                                           D.C. Al Fine
            
Submit corrections

comments powered by Disqus
↑ Back to top | Napoleon Coste Tabs for Barcarolle. Lyrics for acoustic guitar and electric guitar. Tablatures and chords are parodies/interpretations of the original songs. You may use it for private study, scholarship, research or language learning purposes only