>
 >
Vision Conquest

Vision Conquest Bass Tabs

Napalm Death - Vision Conquest chords, tabs, tablatures, lyrics

Guitar lessons | Add/correct | Request | Top 50 tabs Artists:  A B C D E F G H I J K L M N O P Q R S T U V W X Y Z 0-9

Vision Conquest Bass Tabs – Napalm Death

CD, Sheet music, Poster

Do you like Vision Conquest? Share with your friends now
Bass TabsTabs
Vision Conquest                                 
Napalm Death
Shane Embury (Bass)



     W                   E  E  E  E  E  E  E  E     E  E  E  E  E  E  E  E   
F||-------------------|--------------------------|--------------------------|
C||-------------------|--------------------------|--------------------------|
G||-------------------|-----------3--2--1--------|-----------3--2--1--------|
D||-------------------|--3--2--1-----------2--1--|--3--2--1-----------2--1--|


  E  E  E  E  E  E  E  E     E  E  E  E  E  E  E  E     H        Q    Q     
--------------------------|--------------------------|---------------------|
--------------------------|--------------------------|----------------9----|
-----------3--2--1--------|-----------3--2--1--------|--7------------------|
--3--2--1-----------2--1--|--3--2--1-----------2--1--|-----------6---------|


  Q    Q     Q    Q       H        Q    Q       Q    Q     Q    Q     
-----------------------|---------------------|-----------------------|
--8---------10---------|----------------9----|--8---------10---------|
-------9----------5----|--7------------------|-------9---------------|
-----------------------|-----------6---------|------------------8----|


  H        Q    Q       Q    Q     Q    Q       H        Q    Q     
---------------------|-----------------------|---------------------|
----------------9----|--8---------10---------|----------------9----|
--7------------------|-------9----------5----|--7------------------|
-----------6---------|-----------------------|-----------6---------|


  Q    Q     Q    Q       E  Q    E  H           Q    Q    Q    Q     
-----------------------|----------------------|----------------------|
--8---------10---------|----------------------|--3---------2----5----|
-------9---------------|----------2--1--------|-------5--------------|
------------------8----|--0--0----------------|----------------------|


  E  Q    E  H           Q    Q    Q    Q       E  Q    E  H         
----------------------|----------------------|----------------------|
----------------------|--3-------------------|----------------------|
----------2--1--------|-------5--------------|----------2--1--------|
--0--0----------------|------------3----1----|--0--0----------------|


  Q    Q    Q    Q       E  Q    E  H           Q    Q    Q    Q     
----------------------|----------------------|----------------------|
--3---------2----5----|----------------------|--3-------------------|
-------5--------------|----------2--1--------|-------5--------------|
----------------------|--0--0----------------|------------3----1----|


  E  Q    E  H           Q    Q    Q    Q       E  Q    E  H         
----------------------|----------------------|----------------------|
----------------------|--3---------2----5----|----------------------|
----------2--1--------|-------5--------------|----------2--1--------|
--0--0----------------|----------------------|--0--0----------------|


  Q    Q    Q    Q       E  Q    E  H           Q    Q    Q    Q     
----------------------|----------------------|----------------------|
--3-------------------|----------------------|--3---------2----5----|
-------5--------------|----------2--1--------|-------5--------------|
------------3----1----|--0--0----------------|----------------------|


  E  Q    E  H           Q    Q    Q    Q       H        Q    Q     
----------------------|----------------------|---------------------|
----------------------|--3-------------------|----------------9----|
----------2--1--------|-------5--------------|--7------------------|
--0--0----------------|------------3----1----|-----------6---------|


  Q    Q     Q    Q       H        Q    Q       Q    Q     Q    Q     
-----------------------|---------------------|-----------------------|
--8---------10---------|----------------9----|--8---------10---------|
-------9----------5----|--7------------------|-------9---------------|
-----------------------|-----------6---------|------------------8----|


  H        Q    Q       Q    Q     Q    Q       H        Q    Q     
---------------------|-----------------------|---------------------|
----------------9----|--8---------10---------|----------------9----|
--7------------------|-------9----------5----|--7------------------|
-----------6---------|-----------------------|-----------6---------|


  Q    Q     Q    Q       E  Q    E  H           Q    Q    Q    Q     
-----------------------|----------------------|----------------------|
--8---------10---------|----------------------|--3---------2----5----|
-------9---------------|----------2--1--------|-------5--------------|
------------------8----|--0--0----------------|----------------------|


  E  Q    E  H           Q    Q    Q    Q       E  Q    E  H         
----------------------|----------------------|----------------------|
----------------------|--3-------------------|----------------------|
----------2--1--------|-------5--------------|----------2--1--------|
--0--0----------------|------------3----1----|--0--0----------------|


  Q    Q    Q    Q       E  Q    E  H           Q    Q    Q    Q     
----------------------|----------------------|----------------------|
--3---------2----5----|----------------------|--3-------------------|
-------5--------------|----------2--1--------|-------5--------------|
----------------------|--0--0----------------|------------3----1----|


  E  Q    E  H           Q    Q    Q    Q       E  Q    E  H         
----------------------|----------------------|----------------------|
----------------------|--3---------2----5----|----------------------|
----------2--1--------|-------5--------------|----------2--1--------|
--0--0----------------|----------------------|--0--0----------------|


  Q    Q    Q    Q       E  Q    E  H           Q    Q    Q    Q     
----------------------|----------------------|----------------------|
--3-------------------|----------------------|--3---------2----5----|
-------5--------------|----------2--1--------|-------5--------------|
------------3----1----|--0--0----------------|----------------------|


  E  Q    E  H           Q    Q    Q    Q               Q    Q    Q    Q     
----------------------|----------------------|-------|----------------------|
----------------------|--3-------------------|-------|----------------------|
----------2--1--------|-------5--------------|-------|------------2---------|
--0--0----------------|------------3----1----|-------|--1----3---------3----|


  Q    Q    Q    Q       Q    Q    Q    Q       Q    Q    Q    Q     
----------------------|----------------------|----------------------|
------------5---------|-----------------3----|------------5---------|
-------5---------5----|------------1---------|-------5---------5----|
--3-------------------|--1----3--------------|--3-------------------|


  Q    Q    Q    Q       Q    Q    Q    Q       Q    Q    Q    Q     
----------------------|----------------------|----------------------|
----------------------|------------5---------|-----------------3----|
------------2---------|-------5---------5----|------------1---------|
--1----3---------3----|--3-------------------|--1----3--------------|


  Q    Q    Q    Q       Q    Q    Q    Q       Q    Q    Q    Q     
----------------------|----------------------|----------------------|
------------5---------|----------------------|------------5---------|
-------5---------5----|------------2---------|-------5---------5----|
--3-------------------|--1----3---------3----|--3-------------------|


  Q    Q    Q    Q       Q    Q    Q    Q       Q    Q    Q    Q     
----------------------|----------------------|----------------------|
-----------------3----|------------5---------|----------------------|
------------1---------|-------5---------5----|------------2---------|
--1----3--------------|--3-------------------|--1----3---------3----|


  Q    Q    Q    Q       Q    Q    Q    Q       Q    Q    Q    Q     
----------------------|----------------------|----------------------|
------------5---------|-----------------3----|--5--------------5----|
-------5---------5----|------------1---------|-------4--------------|
--3-------------------|--1----3--------------|------------3---------|


  Q    Q    Q    Q       Q    Q    Q    Q       Q    Q    Q    Q     
----------------------|----------------------|----------------------|
-------6----5---------|-------5---------3----|--5--------------5----|
--4--------------4----|------------4---------|-------4--------------|
----------------------|--3-------------------|------------3---------|


  Q    Q    Q    Q       Q    Q    Q    Q       Q    Q    Q    Q     
----------------------|----------------------|----------------------|
-------6----5---------|-------5---------3----|--4--------------4----|
--4--------------4----|------------4---------|-------3--------------|
----------------------|--3-------------------|------------2---------|


  Q    Q    Q    Q       Q    Q    Q    Q       Q    Q    Q    Q     
----------------------|----------------------|----------------------|
-------5----4---------|-------4---------2----|--4--------------4----|
--3--------------3----|------------3---------|-------3--------------|
----------------------|--2-------------------|------------2---------|


  Q    Q    Q    Q       Q    Q    Q    Q       Q    Q    Q    Q     
----------------------|----------------------|----------------------|
-------5----4---------|-------4---------2----|--5--------------5----|
--3--------------3----|------------3---------|-------4--------------|
----------------------|--2-------------------|------------3---------|


  Q    Q    Q    Q       Q    Q    Q    Q       Q    Q    Q    Q     
----------------------|----------------------|----------------------|
-------6----5---------|-------5---------3----|--5--------------5----|
--4--------------4----|------------4---------|-------4--------------|
----------------------|--3-------------------|------------3---------|


  Q    Q    Q    Q       Q    Q    Q    Q       Q    Q    Q    Q     
----------------------|----------------------|----------------------|
-------6----5---------|-------5---------3----|--4--------------4----|
--4--------------4----|------------4---------|-------3--------------|
----------------------|--3-------------------|------------2---------|


  Q    Q    Q    Q       Q    Q    Q    Q       Q    Q    Q    Q     
----------------------|----------------------|----------------------|
-------5----4---------|-------4---------2----|--4--------------4----|
--3--------------3----|------------3---------|-------3--------------|
----------------------|--2-------------------|------------2---------|


  Q    Q    Q    Q       Q    Q    Q    Q       Q    Q    Q    Q     
----------------------|----------------------|----------------------|
-------5----4---------|-------4---------2----|------------5---------|
--3--------------3----|------------3---------|-------5---------5----|
----------------------|--2-------------------|--3-------------------|


  Q    Q    Q    Q       Q    Q    Q    Q       Q    Q    Q    Q     
----------------------|----------------------|----------------------|
----------------------|------------5---------|-----------------3----|
------------2---------|-------5---------5----|------------1---------|
--1----3---------3----|--3-------------------|--1----3--------------|


  Q    Q    Q    Q       Q    Q    Q    Q       Q    Q    Q    Q     
----------------------|----------------------|----------------------|
------------5---------|----------------------|------------5---------|
-------5---------5----|------------2---------|-------5---------5----|
--3-------------------|--1----3---------3----|--3-------------------|


  Q    Q    Q    Q       E  Q    E  H           Q    Q    Q    Q     
----------------------|----------------------|----------------------|
-----------------3----|----------------------|--3---------2----5----|
------------1---------|----------2--1--------|-------5--------------|
--1----3--------------|--0--0----------------|----------------------|


  E  Q    E  H           Q    Q    Q    Q       E  Q    E  H         
----------------------|----------------------|----------------------|
----------------------|--3-------------------|----------------------|
----------2--1--------|-------5--------------|----------2--1--------|
--0--0----------------|------------3----1----|--0--0----------------|


  Q    Q    Q    Q       E  Q    E  H           Q    Q    Q    Q     
----------------------|----------------------|----------------------|
--3---------2----5----|----------------------|--3-------------------|
-------5--------------|----------2--1--------|-------5--------------|
----------------------|--0--0----------------|------------3----1----|


  H        Q    Q       Q    Q     Q    Q       H        Q    Q     
---------------------|-----------------------|---------------------|
----------------9----|--8---------10---------|----------------9----|
--7------------------|-------9----------5----|--7------------------|
-----------6---------|-----------------------|-----------6---------|


  Q    Q     Q    Q       H        Q    Q       Q    Q     Q    Q     
-----------------------|---------------------|-----------------------|
--8---------10---------|----------------9----|--8---------10---------|
-------9---------------|--7------------------|-------9----------5----|
------------------8----|-----------6---------|-----------------------|


  H        Q    Q       Q    Q     Q    Q       E  E  E  E  E  E  E  E   
---------------------|-----------------------|--------------------------|
----------------9----|--8---------10---------|--------------------------|
--7------------------|-------9---------------|-----------3--2--1--------|
-----------6---------|------------------8----|--3--2--1-----------2--1--|


  E  E  E  E  E  E  E  E     E  E  E  E  E  E  E  E   
--------------------------|--------------------------|
--------------------------|--------------------------|
-----------3--2--1--------|-----------3--2--1--------|
--3--2--1-----------2--1--|--3--2--1-----------2--1--|


  E  E  E  E  E  E  E  E     Q    H.             
--------------------------|--------------------||
--------------------------|--------------------||
-----------3--2--1--------|--------------------||
--3--2--1-----------2--1--|--0-----------------||




Duration Legend
---------------
W - whole
H - half
Q - quarter
E - 8th
S - 16th
T - 32nd
X - 64th
. - note dotted
|-n-|  - n-tuplets


Tablature Legend
----------------
L - tied note
x - dead note
g - grace note
(n) - ghost note
> - accentuded note
NH - natural harmonic
AH - artificial harmonic
TH - tapped harmonic
SH - semi harmonic
PH - pitch harmonic
h - hammer on
p - pull off
b - bend
br - bendRelease
pb - preBend
pbr - preBendRelease
brb - bendReleaseBend
\n/ - tremolo bar dip
\n - tremolo bar dive
-/n - tremolo bar Release up
/n\ - tremolo bar inverted dip
/n - tremolo bar return
-\n - tremolo bar Release down
S - shift slide
s - legato slide
/ -  slide into from below or out of upwards
\ -  slide into from above or out of downwards
~ - vibrato
W - wide vibrato
tr - trill
TP - tremolo picking
T - tapping
S - slap
P - pop
< - fade in
^ - brush up
v - brush down





Comments


Popular Napalm Death tabs & chords
Inner Incineration Bass Tabs
All Hail The Grey Dawn Tabs
Deciever Tabs
Hiding Behind Tabs
Inner Incineration Tabs
Kill Tabs
More Than Meets The Eye Tabs
On The Brink Of Extinction Tabs
Placate, Sedate, Eradicate Tabs
Suffer The Children Tabs


Song lyrics



↑ Back to top | Tablatures and chords are parodies/interpretations of the original songs. You may use it for private study, scholarship, research or language learning purposes only
© 2014 AZChords.com Contact us | Privacy policy | DMCA | Add/correct tabs | Request tabs | Top 50 tabs